ISO-10303-21;
HEADER;
/* Generated by software containing ST-Developer
 * from STEP Tools, Inc. (www.steptools.com) 
 */
/* OPTION: using custom schema-name function */

FILE_DESCRIPTION(
/* description */ (''),
/* implementation_level */ '2;1');

FILE_NAME(
/* name */ '2046861',
/* time_stamp */ '2015-05-04T10:04:54+02:00',
/* author */ (''),
/* organization */ (''),
/* preprocessor_version */ 'ST-DEVELOPER v15',
/* originating_system */ '',
/* authorisation */ '');

FILE_SCHEMA (('CONFIG_CONTROL_DESIGN'));
ENDSEC;

DATA;
#10=SHAPE_REPRESENTATION_RELATIONSHIP('','',#189,#13);
#11=SHAPE_REPRESENTATION_RELATIONSHIP('','',#189,#15);
#12=GEOMETRIC_CURVE_SET('curve_set_0',(#87,#88));
#13=GEOMETRICALLY_BOUNDED_WIREFRAME_SHAPE_REPRESENTATION(
'wireframe_rep_0',(#12,#193),#188);
#14=MANIFOLD_SOLID_BREP('brep_1',#16);
#15=ADVANCED_BREP_SHAPE_REPRESENTATION('brep_rep_0',(#14,#194),#188);
#16=CLOSED_SHELL('',(#19,#20,#21,#22,#23,#24));
#17=FACE_BOUND('',#34,.T.);
#18=FACE_BOUND('',#36,.T.);
#19=ADVANCED_FACE('',(#25),#99,.T.);
#20=ADVANCED_FACE('',(#26),#100,.T.);
#21=ADVANCED_FACE('',(#27,#17),#97,.T.);
#22=ADVANCED_FACE('',(#28,#18),#98,.T.);
#23=ADVANCED_FACE('',(#29),#101,.T.);
#24=ADVANCED_FACE('',(#30),#102,.T.);
#25=FACE_OUTER_BOUND('',#31,.T.);
#26=FACE_OUTER_BOUND('',#32,.T.);
#27=FACE_OUTER_BOUND('',#33,.T.);
#28=FACE_OUTER_BOUND('',#35,.T.);
#29=FACE_OUTER_BOUND('',#37,.T.);
#30=FACE_OUTER_BOUND('',#38,.T.);
#31=EDGE_LOOP('',(#39,#40,#41,#42));
#32=EDGE_LOOP('',(#43,#44,#45,#46));
#33=EDGE_LOOP('',(#47,#48));
#34=EDGE_LOOP('',(#49,#50));
#35=EDGE_LOOP('',(#51,#52));
#36=EDGE_LOOP('',(#53,#54));
#37=EDGE_LOOP('',(#55,#56,#57,#58));
#38=EDGE_LOOP('',(#59,#60,#61,#62));
#39=ORIENTED_EDGE('',*,*,#69,.T.);
#40=ORIENTED_EDGE('',*,*,#65,.F.);
#41=ORIENTED_EDGE('',*,*,#64,.F.);
#42=ORIENTED_EDGE('',*,*,#63,.T.);
#43=ORIENTED_EDGE('',*,*,#72,.T.);
#44=ORIENTED_EDGE('',*,*,#68,.F.);
#45=ORIENTED_EDGE('',*,*,#67,.F.);
#46=ORIENTED_EDGE('',*,*,#66,.T.);
#47=ORIENTED_EDGE('',*,*,#70,.F.);
#48=ORIENTED_EDGE('',*,*,#63,.F.);
#49=ORIENTED_EDGE('',*,*,#73,.F.);
#50=ORIENTED_EDGE('',*,*,#66,.F.);
#51=ORIENTED_EDGE('',*,*,#65,.T.);
#52=ORIENTED_EDGE('',*,*,#71,.T.);
#53=ORIENTED_EDGE('',*,*,#68,.T.);
#54=ORIENTED_EDGE('',*,*,#74,.T.);
#55=ORIENTED_EDGE('',*,*,#70,.T.);
#56=ORIENTED_EDGE('',*,*,#64,.T.);
#57=ORIENTED_EDGE('',*,*,#71,.F.);
#58=ORIENTED_EDGE('',*,*,#69,.F.);
#59=ORIENTED_EDGE('',*,*,#73,.T.);
#60=ORIENTED_EDGE('',*,*,#67,.T.);
#61=ORIENTED_EDGE('',*,*,#74,.F.);
#62=ORIENTED_EDGE('',*,*,#72,.F.);
#63=EDGE_CURVE('',#89,#93,#75,.T.);
#64=EDGE_CURVE('',#89,#90,#76,.T.);
#65=EDGE_CURVE('',#90,#94,#77,.T.);
#66=EDGE_CURVE('',#91,#95,#78,.T.);
#67=EDGE_CURVE('',#91,#92,#79,.T.);
#68=EDGE_CURVE('',#92,#96,#80,.T.);
#69=EDGE_CURVE('',#93,#94,#81,.T.);
#70=EDGE_CURVE('',#93,#89,#82,.T.);
#71=EDGE_CURVE('',#94,#90,#83,.T.);
#72=EDGE_CURVE('',#95,#96,#84,.T.);
#73=EDGE_CURVE('',#95,#91,#85,.T.);
#74=EDGE_CURVE('',#96,#92,#86,.T.);
#75=(
BOUNDED_CURVE()
B_SPLINE_CURVE(2,(#254,#255,#256,#257,#258),.UNSPECIFIED.,.F.,.F.)
B_SPLINE_CURVE_WITH_KNOTS((3,2,3),(1.5707963267949,3.14159265358979,4.71238898038469),
 .UNSPECIFIED.)
CURVE()
GEOMETRIC_REPRESENTATION_ITEM()
RATIONAL_B_SPLINE_CURVE((1.,0.707106781186548,1.,0.707106781186548,1.))
REPRESENTATION_ITEM('')
);
#76=(
BOUNDED_CURVE()
B_SPLINE_CURVE(1,(#259,#260),.UNSPECIFIED.,.F.,.F.)
B_SPLINE_CURVE_WITH_KNOTS((2,2),(0.,3000.),.UNSPECIFIED.)
CURVE()
GEOMETRIC_REPRESENTATION_ITEM()
RATIONAL_B_SPLINE_CURVE((1.,1.))
REPRESENTATION_ITEM('')
);
#77=(
BOUNDED_CURVE()
B_SPLINE_CURVE(2,(#261,#262,#263,#264,#265),.UNSPECIFIED.,.F.,.F.)
B_SPLINE_CURVE_WITH_KNOTS((3,2,3),(1.5707963267949,3.14159265358979,4.71238898038469),
 .UNSPECIFIED.)
CURVE()
GEOMETRIC_REPRESENTATION_ITEM()
RATIONAL_B_SPLINE_CURVE((1.,0.707106781186548,1.,0.707106781186548,1.))
REPRESENTATION_ITEM('')
);
#78=(
BOUNDED_CURVE()
B_SPLINE_CURVE(2,(#266,#267,#268,#269,#270),.UNSPECIFIED.,.F.,.F.)
B_SPLINE_CURVE_WITH_KNOTS((3,2,3),(7.85398163397448,9.42477796076938,10.9955742875643),
 .UNSPECIFIED.)
CURVE()
GEOMETRIC_REPRESENTATION_ITEM()
RATIONAL_B_SPLINE_CURVE((1.,0.707106781186548,1.,0.707106781186548,1.))
REPRESENTATION_ITEM('')
);
#79=(
BOUNDED_CURVE()
B_SPLINE_CURVE(1,(#271,#272),.UNSPECIFIED.,.F.,.F.)
B_SPLINE_CURVE_WITH_KNOTS((2,2),(0.,3000.),.UNSPECIFIED.)
CURVE()
GEOMETRIC_REPRESENTATION_ITEM()
RATIONAL_B_SPLINE_CURVE((1.,1.))
REPRESENTATION_ITEM('')
);
#80=(
BOUNDED_CURVE()
B_SPLINE_CURVE(2,(#273,#274,#275,#276,#277),.UNSPECIFIED.,.F.,.F.)
B_SPLINE_CURVE_WITH_KNOTS((3,2,3),(7.85398163397448,9.42477796076938,10.9955742875643),
 .UNSPECIFIED.)
CURVE()
GEOMETRIC_REPRESENTATION_ITEM()
RATIONAL_B_SPLINE_CURVE((1.,0.707106781186548,1.,0.707106781186548,1.))
REPRESENTATION_ITEM('')
);
#81=(
BOUNDED_CURVE()
B_SPLINE_CURVE(1,(#278,#279),.UNSPECIFIED.,.F.,.F.)
B_SPLINE_CURVE_WITH_KNOTS((2,2),(0.,3000.),.UNSPECIFIED.)
CURVE()
GEOMETRIC_REPRESENTATION_ITEM()
RATIONAL_B_SPLINE_CURVE((1.,1.))
REPRESENTATION_ITEM('')
);
#82=(
BOUNDED_CURVE()
B_SPLINE_CURVE(2,(#280,#281,#282,#283,#284),.UNSPECIFIED.,.F.,.F.)
B_SPLINE_CURVE_WITH_KNOTS((3,2,3),(4.71238898038469,6.28318530717958,7.85398163397448),
 .UNSPECIFIED.)
CURVE()
GEOMETRIC_REPRESENTATION_ITEM()
RATIONAL_B_SPLINE_CURVE((1.,0.707106781186548,1.,0.707106781186548,1.))
REPRESENTATION_ITEM('')
);
#83=(
BOUNDED_CURVE()
B_SPLINE_CURVE(2,(#285,#286,#287,#288,#289),.UNSPECIFIED.,.F.,.F.)
B_SPLINE_CURVE_WITH_KNOTS((3,2,3),(4.71238898038469,6.28318530717958,7.85398163397448),
 .UNSPECIFIED.)
CURVE()
GEOMETRIC_REPRESENTATION_ITEM()
RATIONAL_B_SPLINE_CURVE((1.,0.707106781186548,1.,0.707106781186548,1.))
REPRESENTATION_ITEM('')
);
#84=(
BOUNDED_CURVE()
B_SPLINE_CURVE(1,(#290,#291),.UNSPECIFIED.,.F.,.F.)
B_SPLINE_CURVE_WITH_KNOTS((2,2),(0.,3000.),.UNSPECIFIED.)
CURVE()
GEOMETRIC_REPRESENTATION_ITEM()
RATIONAL_B_SPLINE_CURVE((1.,1.))
REPRESENTATION_ITEM('')
);
#85=(
BOUNDED_CURVE()
B_SPLINE_CURVE(2,(#292,#293,#294,#295,#296),.UNSPECIFIED.,.F.,.F.)
B_SPLINE_CURVE_WITH_KNOTS((3,2,3),(10.9955742875643,12.5663706143592,14.1371669411541),
 .UNSPECIFIED.)
CURVE()
GEOMETRIC_REPRESENTATION_ITEM()
RATIONAL_B_SPLINE_CURVE((1.,0.707106781186548,1.,0.707106781186548,1.))
REPRESENTATION_ITEM('')
);
#86=(
BOUNDED_CURVE()
B_SPLINE_CURVE(2,(#297,#298,#299,#300,#301),.UNSPECIFIED.,.F.,.F.)
B_SPLINE_CURVE_WITH_KNOTS((3,2,3),(10.9955742875643,12.5663706143592,14.1371669411541),
 .UNSPECIFIED.)
CURVE()
GEOMETRIC_REPRESENTATION_ITEM()
RATIONAL_B_SPLINE_CURVE((1.,0.707106781186548,1.,0.707106781186548,1.))
REPRESENTATION_ITEM('')
);
#87=(
BOUNDED_CURVE()
B_SPLINE_CURVE(2,(#302,#303,#304,#305,#306,#307,#308,#309,#310),
 .UNSPECIFIED.,.T.,.F.)
B_SPLINE_CURVE_WITH_KNOTS((3,2,2,2,3),(1.5707963267949,3.14159265358979,
4.71238898038469,6.28318530717958,7.85398163397448),.UNSPECIFIED.)
CURVE()
GEOMETRIC_REPRESENTATION_ITEM()
RATIONAL_B_SPLINE_CURVE((1.,0.707106781186548,1.,0.707106781186548,1.,0.707106781186548,
1.,0.707106781186548,1.))
REPRESENTATION_ITEM('')
);
#88=(
BOUNDED_CURVE()
B_SPLINE_CURVE(2,(#311,#312,#313,#314,#315,#316,#317,#318,#319),
 .UNSPECIFIED.,.T.,.F.)
B_SPLINE_CURVE_WITH_KNOTS((3,2,2,2,3),(-1.5707963267949,-4.44089209850063E-16,
1.57079632679489,3.14159265358979,4.71238898038468),.UNSPECIFIED.)
CURVE()
GEOMETRIC_REPRESENTATION_ITEM()
RATIONAL_B_SPLINE_CURVE((1.,0.707106781186548,1.,0.707106781186548,1.,0.707106781186548,
1.,0.707106781186548,1.))
REPRESENTATION_ITEM('')
);
#89=VERTEX_POINT('',#246);
#90=VERTEX_POINT('',#247);
#91=VERTEX_POINT('',#248);
#92=VERTEX_POINT('',#249);
#93=VERTEX_POINT('',#250);
#94=VERTEX_POINT('',#251);
#95=VERTEX_POINT('',#252);
#96=VERTEX_POINT('',#253);
#97=PLANE('',#191);
#98=PLANE('',#192);
#99=(
BOUNDED_SURFACE()
B_SPLINE_SURFACE(2,1,((#204,#205),(#206,#207),(#208,#209),(#210,#211),(#212,
#213)),.UNSPECIFIED.,.F.,.F.,.F.)
B_SPLINE_SURFACE_WITH_KNOTS((3,2,3),(2,2),(1.5707963267949,3.14159265358979,
4.71238898038469),(0.,3000.),.UNSPECIFIED.)
GEOMETRIC_REPRESENTATION_ITEM()
RATIONAL_B_SPLINE_SURFACE(((1.,1.),(0.707106781186548,0.707106781186548),
(1.,1.),(0.707106781186548,0.707106781186548),(1.,1.)))
REPRESENTATION_ITEM('')
SURFACE()
);
#100=(
BOUNDED_SURFACE()
B_SPLINE_SURFACE(2,1,((#214,#215),(#216,#217),(#218,#219),(#220,#221),(#222,
#223)),.UNSPECIFIED.,.F.,.F.,.F.)
B_SPLINE_SURFACE_WITH_KNOTS((3,2,3),(2,2),(7.85398163397448,9.42477796076938,
10.9955742875643),(0.,3000.),.UNSPECIFIED.)
GEOMETRIC_REPRESENTATION_ITEM()
RATIONAL_B_SPLINE_SURFACE(((1.,1.),(0.707106781186548,0.707106781186548),
(1.,1.),(0.707106781186548,0.707106781186548),(1.,1.)))
REPRESENTATION_ITEM('')
SURFACE()
);
#101=(
BOUNDED_SURFACE()
B_SPLINE_SURFACE(2,1,((#226,#227),(#228,#229),(#230,#231),(#232,#233),(#234,
#235)),.UNSPECIFIED.,.F.,.F.,.F.)
B_SPLINE_SURFACE_WITH_KNOTS((3,2,3),(2,2),(4.71238898038469,6.28318530717958,
7.85398163397448),(0.,3000.),.UNSPECIFIED.)
GEOMETRIC_REPRESENTATION_ITEM()
RATIONAL_B_SPLINE_SURFACE(((1.,1.),(0.707106781186548,0.707106781186548),
(1.,1.),(0.707106781186548,0.707106781186548),(1.,1.)))
REPRESENTATION_ITEM('')
SURFACE()
);
#102=(
BOUNDED_SURFACE()
B_SPLINE_SURFACE(2,1,((#236,#237),(#238,#239),(#240,#241),(#242,#243),(#244,
#245)),.UNSPECIFIED.,.F.,.F.,.F.)
B_SPLINE_SURFACE_WITH_KNOTS((3,2,3),(2,2),(10.9955742875643,12.5663706143592,
14.1371669411541),(0.,3000.),.UNSPECIFIED.)
GEOMETRIC_REPRESENTATION_ITEM()
RATIONAL_B_SPLINE_SURFACE(((1.,1.),(0.707106781186548,0.707106781186548),
(1.,1.),(0.707106781186548,0.707106781186548),(1.,1.)))
REPRESENTATION_ITEM('')
SURFACE()
);
#103=SHAPE_DEFINITION_REPRESENTATION(#104,#189);
#104=PRODUCT_DEFINITION_SHAPE('Document','',#106);
#105=PRODUCT_DEFINITION_CONTEXT('3D Mechanical Parts',#178,'design');
#106=PRODUCT_DEFINITION('A','First version',#148,#105);
#107=DATE_TIME_ROLE('classification_date');
#108=DATE_TIME_ROLE('creation_date');
#109=APPLIED_DATE_AND_TIME_ASSIGNMENT(#133,#107,(#112));
#110=APPLIED_DATE_AND_TIME_ASSIGNMENT(#135,#108,(#106));
#111=SECURITY_CLASSIFICATION_LEVEL('unclassified');
#112=SECURITY_CLASSIFICATION('A','Security for version',#111);
#113=APPLIED_SECURITY_CLASSIFICATION_ASSIGNMENT(#112,(#148));
#114=APPROVAL_ROLE('Version approval');
#115=APPROVAL_ROLE('Version Security approval');
#116=APPROVAL_ROLE('Definition approval');
#117=APPROVAL_PERSON_ORGANIZATION(#166,#142,#114);
#118=APPROVAL_PERSON_ORGANIZATION(#167,#143,#115);
#119=APPROVAL_PERSON_ORGANIZATION(#170,#144,#116);
#120=COORDINATED_UNIVERSAL_TIME_OFFSET(5,0,.BEHIND.);
#121=LOCAL_TIME(0,0,0.,#120);
#122=LOCAL_TIME(0,0,0.,#120);
#123=LOCAL_TIME(0,0,0.,#120);
#124=LOCAL_TIME(0,0,0.,#120);
#125=LOCAL_TIME(0,0,0.,#120);
#126=CALENDAR_DATE(1999,1,1);
#127=CALENDAR_DATE(1999,1,1);
#128=CALENDAR_DATE(1999,1,1);
#129=CALENDAR_DATE(1999,1,1);
#130=CALENDAR_DATE(1999,1,1);
#131=DATE_AND_TIME(#126,#121);
#132=DATE_AND_TIME(#127,#122);
#133=DATE_AND_TIME(#128,#123);
#134=DATE_AND_TIME(#129,#124);
#135=DATE_AND_TIME(#130,#125);
#136=APPROVAL_DATE_TIME(#131,#142);
#137=APPROVAL_DATE_TIME(#132,#143);
#138=APPROVAL_DATE_TIME(#134,#144);
#139=APPROVAL_STATUS('not_yet_approved');
#140=APPROVAL_STATUS('not_yet_approved');
#141=APPROVAL_STATUS('approved');
#142=APPROVAL(#139,'Version approval');
#143=APPROVAL(#140,'Version Security approval');
#144=APPROVAL(#141,'Definition approval');
#145=APPLIED_APPROVAL_ASSIGNMENT(#142,(#148));
#146=APPLIED_APPROVAL_ASSIGNMENT(#143,(#112));
#147=APPLIED_APPROVAL_ASSIGNMENT(#144,(#106));
#148=PRODUCT_DEFINITION_FORMATION_WITH_SPECIFIED_SOURCE('A',
'First version',#180,.MADE.);
#149=PERSON_AND_ORGANIZATION_ROLE('design_owner');
#150=PERSON_AND_ORGANIZATION_ROLE('creator');
#151=PERSON_AND_ORGANIZATION_ROLE('design_supplier');
#152=PERSON_AND_ORGANIZATION_ROLE('classification_officer');
#153=PERSON_AND_ORGANIZATION_ROLE('creator');
#154=ORGANIZATION('STI','lab','lab');
#155=ORGANIZATION('STI','unknown','unknown');
#156=ORGANIZATION('STI','unknown','unknown');
#157=ORGANIZATION('STI','unknown','unknown');
#158=ORGANIZATION('STI','unknown','unknown');
#159=ORGANIZATION('STI','unknown','unknown');
#160=ORGANIZATION('STI','unknown','unknown');
#161=PERSON('1','Box','vc60',$,$,$);
#162=PERSON('2','last','first',$,$,$);
#163=PERSON('3','President','Mr.',$,$,$);
#164=PERSON_AND_ORGANIZATION(#161,#154);
#165=PERSON_AND_ORGANIZATION(#162,#155);
#166=PERSON_AND_ORGANIZATION(#163,#156);
#167=PERSON_AND_ORGANIZATION(#163,#157);
#168=PERSON_AND_ORGANIZATION(#163,#158);
#169=PERSON_AND_ORGANIZATION(#162,#159);
#170=PERSON_AND_ORGANIZATION(#163,#160);
#171=APPLIED_PERSON_AND_ORGANIZATION_ASSIGNMENT(#164,#149,(#180));
#172=APPLIED_PERSON_AND_ORGANIZATION_ASSIGNMENT(#165,#150,(#148));
#173=APPLIED_PERSON_AND_ORGANIZATION_ASSIGNMENT(#165,#151,(#148));
#174=APPLIED_PERSON_AND_ORGANIZATION_ASSIGNMENT(#168,#152,(#112));
#175=APPLIED_PERSON_AND_ORGANIZATION_ASSIGNMENT(#169,#153,(#106));
#176=PRODUCT_RELATED_PRODUCT_CATEGORY('detail','detail',(#180));
#177=APPLICATION_PROTOCOL_DEFINITION('International Standard',
'config_control_design',1994,#178);
#178=APPLICATION_CONTEXT(
'configuration controlled 3d designs of mechanical parts and assemblie
s');
#179=PRODUCT_CONTEXT('3D Mechanical Parts',#178,'mechanical');
#180=PRODUCT('Document','Document','Rhino converted to STEP',(#179));
#181=(
LENGTH_UNIT()
NAMED_UNIT(*)
SI_UNIT(.MILLI.,.METRE.)
);
#182=(
NAMED_UNIT(*)
PLANE_ANGLE_UNIT()
SI_UNIT($,.RADIAN.)
);
#183=DIMENSIONAL_EXPONENTS(0.,0.,0.,0.,0.,0.,0.);
#184=PLANE_ANGLE_MEASURE_WITH_UNIT(PLANE_ANGLE_MEASURE(0.01745329252),#182);
#185=(
CONVERSION_BASED_UNIT('DEGREES',#184)
NAMED_UNIT(#183)
PLANE_ANGLE_UNIT()
);
#186=(
NAMED_UNIT(*)
SI_UNIT($,.STERADIAN.)
SOLID_ANGLE_UNIT()
);
#187=UNCERTAINTY_MEASURE_WITH_UNIT(LENGTH_MEASURE(0.0001),#181,
'DISTANCE_ACCURACY_VALUE',
'Maximum model space distance between geometric entities at asserted c
onnectivities');
#188=(
GEOMETRIC_REPRESENTATION_CONTEXT(3)
GLOBAL_UNCERTAINTY_ASSIGNED_CONTEXT((#187))
GLOBAL_UNIT_ASSIGNED_CONTEXT((#186,#185,#181))
REPRESENTATION_CONTEXT('ID1','3D')
);
#189=SHAPE_REPRESENTATION('Document',(#190,#193,#194),#188);
#190=AXIS2_PLACEMENT_3D('',#203,#195,#196);
#191=AXIS2_PLACEMENT_3D('',#224,#197,$);
#192=AXIS2_PLACEMENT_3D('',#225,#198,$);
#193=AXIS2_PLACEMENT_3D('',#320,#199,#200);
#194=AXIS2_PLACEMENT_3D('',#321,#201,#202);
#195=DIRECTION('',(0.,0.,1.));
#196=DIRECTION('',(1.,0.,0.));
#197=DIRECTION('',(0.,0.,-1.));
#198=DIRECTION('',(0.,0.,1.));
#199=DIRECTION('',(0.,0.,1.));
#200=DIRECTION('',(1.,0.,0.));
#201=DIRECTION('',(0.,0.,1.));
#202=DIRECTION('',(1.,0.,0.));
#203=CARTESIAN_POINT('',(0.,0.,0.));
#204=CARTESIAN_POINT('',(-8.00000000000028,1.27696815482302E-13,-3000.));
#205=CARTESIAN_POINT('',(-8.0000000000374,2.55799739173369E-11,0.));
#206=CARTESIAN_POINT('',(-8.00000000000028,-7.99999999999987,-3000.));
#207=CARTESIAN_POINT('',(-8.0000000000374,-7.99999999997442,0.));
#208=CARTESIAN_POINT('',(-2.78888023785839E-13,-7.99999999999987,-3000.));
#209=CARTESIAN_POINT('',(-3.73976405398935E-11,-7.99999999997442,9.89833400429537E-14));
#210=CARTESIAN_POINT('',(7.99999999999972,-7.99999999999987,-3000.));
#211=CARTESIAN_POINT('',(7.9999999999626,-7.99999999997442,1.97966680085907E-13));
#212=CARTESIAN_POINT('',(7.99999999999972,1.26771526789615E-13,-3000.));
#213=CARTESIAN_POINT('',(7.9999999999626,2.55790486286443E-11,1.97966680085907E-13));
#214=CARTESIAN_POINT('',(6.69999999999972,1.26851128831558E-13,-3000.));
#215=CARTESIAN_POINT('',(6.6999999999626,2.55791282306862E-11,1.81881887328927E-13));
#216=CARTESIAN_POINT('',(6.69999999999972,-6.69999999999987,-3000.));
#217=CARTESIAN_POINT('',(6.6999999999626,-6.69999999997442,1.81881887328927E-13));
#218=CARTESIAN_POINT('',(-2.78888023785839E-13,-6.69999999999987,-3000.));
#219=CARTESIAN_POINT('',(-3.73976405398935E-11,-6.69999999997442,9.89833400429537E-14));
#220=CARTESIAN_POINT('',(-6.70000000000028,-6.69999999999987,-3000.));
#221=CARTESIAN_POINT('',(-6.7000000000374,-6.69999999997442,1.608479275698E-14));
#222=CARTESIAN_POINT('',(-6.70000000000028,1.27671642186987E-13,-3000.));
#223=CARTESIAN_POINT('',(-6.7000000000374,2.55799487440416E-11,1.608479275698E-14));
#224=CARTESIAN_POINT('',(-10.0000000000003,-9.99999999999987,-3000.));
#225=CARTESIAN_POINT('',(-10.0000000000374,-9.99999999997442,-2.47458350107384E-14));
#226=CARTESIAN_POINT('',(7.99999999999972,1.26771526789615E-13,-3000.));
#227=CARTESIAN_POINT('',(7.9999999999626,2.55790486286443E-11,1.97966680085907E-13));
#228=CARTESIAN_POINT('',(7.99999999999972,8.00000000000013,-3000.));
#229=CARTESIAN_POINT('',(7.9999999999626,8.00000000002558,1.97966680085907E-13));
#230=CARTESIAN_POINT('',(-2.77111666946439E-13,8.00000000000013,-3000.));
#231=CARTESIAN_POINT('',(-3.73958641830541E-11,8.00000000002558,9.89833400429537E-14));
#232=CARTESIAN_POINT('',(-8.00000000000028,8.00000000000013,-3000.));
#233=CARTESIAN_POINT('',(-8.0000000000374,8.00000000002558,0.));
#234=CARTESIAN_POINT('',(-8.00000000000028,1.27696815482302E-13,-3000.));
#235=CARTESIAN_POINT('',(-8.0000000000374,2.55799739173369E-11,0.));
#236=CARTESIAN_POINT('',(-6.70000000000028,1.27671642186987E-13,-3000.));
#237=CARTESIAN_POINT('',(-6.7000000000374,2.55799487440416E-11,1.608479275698E-14));
#238=CARTESIAN_POINT('',(-6.70000000000028,6.70000000000013,-3000.));
#239=CARTESIAN_POINT('',(-6.7000000000374,6.70000000002558,1.608479275698E-14));
#240=CARTESIAN_POINT('',(-2.77111666946439E-13,6.70000000000013,-3000.));
#241=CARTESIAN_POINT('',(-3.73958641830541E-11,6.70000000002558,9.89833400429537E-14));
#242=CARTESIAN_POINT('',(6.69999999999972,6.70000000000013,-3000.));
#243=CARTESIAN_POINT('',(6.6999999999626,6.70000000002558,1.81881887328927E-13));
#244=CARTESIAN_POINT('',(6.69999999999972,1.26851128831558E-13,-3000.));
#245=CARTESIAN_POINT('',(6.6999999999626,2.55791282306862E-11,1.81881887328927E-13));
#246=CARTESIAN_POINT('',(-8.00000000000028,1.27696815482302E-13,-3000.));
#247=CARTESIAN_POINT('',(-8.0000000000374,2.55799739173369E-11,0.));
#248=CARTESIAN_POINT('',(6.69999999999972,1.26851128831558E-13,-3000.));
#249=CARTESIAN_POINT('',(6.6999999999626,2.55791282306862E-11,1.81881887328927E-13));
#250=CARTESIAN_POINT('',(7.99999999999972,1.20374394606297E-13,-3000.));
#251=CARTESIAN_POINT('',(7.9999999999626,2.55726514964609E-11,1.97966680085907E-13));
#252=CARTESIAN_POINT('',(-6.70000000000028,1.27671642186987E-13,-3000.));
#253=CARTESIAN_POINT('',(-6.7000000000374,2.55799487440416E-11,1.608479275698E-14));
#254=CARTESIAN_POINT('',(-8.00000000000028,1.27696815482302E-13,-3000.));
#255=CARTESIAN_POINT('',(-8.00000000000028,-7.99999999999987,-3000.));
#256=CARTESIAN_POINT('',(-2.78888023785839E-13,-7.99999999999987,-3000.));
#257=CARTESIAN_POINT('',(7.99999999999971,-7.99999999999987,-3000.));
#258=CARTESIAN_POINT('',(7.99999999999972,1.20374394606297E-13,-3000.));
#259=CARTESIAN_POINT('',(-8.00000000000028,1.27696815482302E-13,-3000.));
#260=CARTESIAN_POINT('',(-8.0000000000374,2.55799739173369E-11,0.));
#261=CARTESIAN_POINT('',(-8.0000000000374,2.55799739173369E-11,0.));
#262=CARTESIAN_POINT('',(-8.0000000000374,-7.99999999997442,0.));
#263=CARTESIAN_POINT('',(-3.73976405398935E-11,-7.99999999997442,9.89833400429537E-14));
#264=CARTESIAN_POINT('',(7.99999999996259,-7.99999999997442,1.97966680085907E-13));
#265=CARTESIAN_POINT('',(7.9999999999626,2.55726514964609E-11,1.97966680085907E-13));
#266=CARTESIAN_POINT('',(6.69999999999972,1.26851128831558E-13,-3000.));
#267=CARTESIAN_POINT('',(6.69999999999972,-6.69999999999987,-3000.));
#268=CARTESIAN_POINT('',(-2.78888023785839E-13,-6.69999999999987,-3000.));
#269=CARTESIAN_POINT('',(-6.70000000000028,-6.69999999999987,-3000.));
#270=CARTESIAN_POINT('',(-6.70000000000028,1.27671642186987E-13,-3000.));
#271=CARTESIAN_POINT('',(6.69999999999972,1.26851128831558E-13,-3000.));
#272=CARTESIAN_POINT('',(6.6999999999626,2.55791282306862E-11,1.81881887328927E-13));
#273=CARTESIAN_POINT('',(6.6999999999626,2.55791282306862E-11,1.81881887328927E-13));
#274=CARTESIAN_POINT('',(6.6999999999626,-6.69999999997442,1.81881887328927E-13));
#275=CARTESIAN_POINT('',(-3.73976405398935E-11,-6.69999999997442,9.89833400429537E-14));
#276=CARTESIAN_POINT('',(-6.7000000000374,-6.69999999997442,1.608479275698E-14));
#277=CARTESIAN_POINT('',(-6.7000000000374,2.55799487440416E-11,1.608479275698E-14));
#278=CARTESIAN_POINT('',(7.99999999999972,1.26771526789615E-13,-3000.));
#279=CARTESIAN_POINT('',(7.9999999999626,2.55790486286443E-11,1.97966680085907E-13));
#280=CARTESIAN_POINT('',(7.99999999999972,1.20374394606297E-13,-3000.));
#281=CARTESIAN_POINT('',(7.99999999999973,8.00000000000013,-3000.));
#282=CARTESIAN_POINT('',(-2.77111666946439E-13,8.00000000000013,-3000.));
#283=CARTESIAN_POINT('',(-8.00000000000028,8.00000000000013,-3000.));
#284=CARTESIAN_POINT('',(-8.00000000000028,1.27696815482302E-13,-3000.));
#285=CARTESIAN_POINT('',(7.9999999999626,2.55726514964609E-11,1.97966680085907E-13));
#286=CARTESIAN_POINT('',(7.99999999996261,8.00000000002558,1.97966680085908E-13));
#287=CARTESIAN_POINT('',(-3.73958641830541E-11,8.00000000002558,9.89833400429537E-14));
#288=CARTESIAN_POINT('',(-8.0000000000374,8.00000000002558,0.));
#289=CARTESIAN_POINT('',(-8.0000000000374,2.55799739173369E-11,0.));
#290=CARTESIAN_POINT('',(-6.70000000000028,1.27671642186987E-13,-3000.));
#291=CARTESIAN_POINT('',(-6.7000000000374,2.55799487440416E-11,1.608479275698E-14));
#292=CARTESIAN_POINT('',(-6.70000000000028,1.27671642186987E-13,-3000.));
#293=CARTESIAN_POINT('',(-6.70000000000028,6.70000000000013,-3000.));
#294=CARTESIAN_POINT('',(-2.77111666946439E-13,6.70000000000013,-3000.));
#295=CARTESIAN_POINT('',(6.69999999999972,6.70000000000013,-3000.));
#296=CARTESIAN_POINT('',(6.69999999999972,1.26851128831558E-13,-3000.));
#297=CARTESIAN_POINT('',(-6.7000000000374,2.55799487440416E-11,1.608479275698E-14));
#298=CARTESIAN_POINT('',(-6.7000000000374,6.70000000002558,1.608479275698E-14));
#299=CARTESIAN_POINT('',(-3.73958641830541E-11,6.70000000002558,9.89833400429537E-14));
#300=CARTESIAN_POINT('',(6.6999999999626,6.70000000002558,1.81881887328927E-13));
#301=CARTESIAN_POINT('',(6.6999999999626,2.55791282306862E-11,1.81881887328927E-13));
#302=CARTESIAN_POINT('',(-8.00000000000028,1.27696815482302E-13,-4.15455398110478E-14));
#303=CARTESIAN_POINT('',(-8.00000000000028,-7.99999999999987,2.63271991272312E-14));
#304=CARTESIAN_POINT('',(-2.78874139521196E-13,-7.99999999999987,1.25308276745553E-13));
#305=CARTESIAN_POINT('',(7.99999999999972,-7.99999999999987,2.24289354363875E-13));
#306=CARTESIAN_POINT('',(7.99999999999972,1.26771526789615E-13,1.56416615425597E-13));
#307=CARTESIAN_POINT('',(7.99999999999972,8.00000000000013,8.8543876487319E-14));
#308=CARTESIAN_POINT('',(-2.77894422081872E-13,8.00000000000013,-1.0437201131003E-14));
#309=CARTESIAN_POINT('',(-8.00000000000028,8.00000000000013,-1.09418278749326E-13));
#310=CARTESIAN_POINT('',(-8.00000000000028,1.27696815482302E-13,-4.15455398110478E-14));
#311=CARTESIAN_POINT('',(6.69999999999972,1.26851128831558E-13,1.26713454543885E-13));
#312=CARTESIAN_POINT('',(6.69999999999972,-6.69999999999987,1.83556873404693E-13));
#313=CARTESIAN_POINT('',(-2.7879453747925E-13,-6.69999999999987,1.00660220899347E-13));
#314=CARTESIAN_POINT('',(-6.70000000000028,-6.69999999999987,1.77635683940025E-14));
#315=CARTESIAN_POINT('',(-6.70000000000028,1.27671642186987E-13,-3.90798504668055E-14));
#316=CARTESIAN_POINT('',(-6.70000000000028,6.70000000000013,-9.59232693276135E-14));
#317=CARTESIAN_POINT('',(-2.77974024123819E-13,6.70000000000013,-1.30266168222686E-14));
#318=CARTESIAN_POINT('',(6.69999999999972,6.70000000000013,6.98700356830768E-14));
#319=CARTESIAN_POINT('',(6.69999999999972,1.26851128831558E-13,1.26713454543885E-13));
#320=CARTESIAN_POINT('',(0.,0.,0.));
#321=CARTESIAN_POINT('',(0.,0.,0.));
ENDSEC;
END-ISO-10303-21;
