ISO-10303-21;
HEADER;
FILE_DESCRIPTION (( 'STEP AP214' ),
    '1' );
FILE_NAME ('3141128.stp',
    '2016-08-23T08:58:39',
    ( '' ),
    ( '' ),
    'SwSTEP 2.0',
    'SolidWorks 2014',
    '' );
FILE_SCHEMA (( 'AUTOMOTIVE_DESIGN' ));
ENDSEC;

DATA;
#1 = VECTOR ( 'NONE', #77, 1000.000000000000000 ) ;
#2 = UNCERTAINTY_MEASURE_WITH_UNIT (LENGTH_MEASURE( 1.000000000000000100E-005 ), #112, 'distance_accuracy_value', 'NONE');
#3 = EDGE_LOOP ( 'NONE', ( #71, #96 ) ) ;
#4 = ORIENTED_EDGE ( 'NONE', *, *, #32, .F. ) ;
#5 =( NAMED_UNIT ( * ) PLANE_ANGLE_UNIT ( ) SI_UNIT ( $, .RADIAN. ) );
#6 = CARTESIAN_POINT ( 'NONE',  ( 0.0000000000000000000, 0.0000000000000000000, 0.0000000000000000000 ) ) ;
#7 = SURFACE_STYLE_FILL_AREA ( #88 ) ;
#8 = COLOUR_RGB ( '',0.7529411764705882200, 0.7529411764705882200, 0.7529411764705882200 ) ;
#9 = DIRECTION ( 'NONE',  ( 0.0000000000000000000, 0.0000000000000000000, 1.000000000000000000 ) ) ;
#10 = SURFACE_STYLE_USAGE ( .BOTH. , #74 ) ;
#11 = ORIENTED_EDGE ( 'NONE', *, *, #32, .T. ) ;
#12 = CIRCLE ( 'NONE', #37, 4.000000000000000000 ) ;
#13 = DIRECTION ( 'NONE',  ( 0.0000000000000000000, 0.0000000000000000000, -1.000000000000000000 ) ) ;
#14 = CARTESIAN_POINT ( 'NONE',  ( 0.0000000000000000000, 500.0000000000000000, 0.0000000000000000000 ) ) ;
#15 = APPLICATION_CONTEXT ( 'automotive_design' ) ;
#16 = ORIENTED_EDGE ( 'NONE', *, *, #136, .F. ) ;
#17 = CYLINDRICAL_SURFACE ( 'NONE', #44, 4.000000000000000000 ) ;
#18 = PRODUCT_DEFINITION_FORMATION_WITH_SPECIFIED_SOURCE ( 'ANY', '', #35, .NOT_KNOWN. ) ;
#19 = LINE ( 'NONE', #93, #1 ) ;
#20 = ADVANCED_BREP_SHAPE_REPRESENTATION ( '3141128', ( #41, #82 ), #40 ) ;
#21 = SURFACE_STYLE_USAGE ( .BOTH. , #62 ) ;
#22 = ORIENTED_EDGE ( 'NONE', *, *, #136, .T. ) ;
#23 = EDGE_CURVE ( 'NONE', #26, #69, #85, .T. ) ;
#24 = DIRECTION ( 'NONE',  ( 0.0000000000000000000, -0.0000000000000000000, 1.000000000000000000 ) ) ;
#25 = VECTOR ( 'NONE', #48, 1000.000000000000000 ) ;
#26 = VERTEX_POINT ( 'NONE', #116 ) ;
#27 = FILL_AREA_STYLE_COLOUR ( '', #8 ) ;
#28 = CARTESIAN_POINT ( 'NONE',  ( 0.0000000000000000000, 0.0000000000000000000, 0.0000000000000000000 ) ) ;
#29 =( NAMED_UNIT ( * ) PLANE_ANGLE_UNIT ( ) SI_UNIT ( $, .RADIAN. ) );
#30 = PLANE ( 'NONE',  #84 ) ;
#31 =( NAMED_UNIT ( * ) SI_UNIT ( $, .STERADIAN. ) SOLID_ANGLE_UNIT ( ) );
#32 = EDGE_CURVE ( 'NONE', #69, #132, #19, .T. ) ;
#33 = SHAPE_DEFINITION_REPRESENTATION ( #56, #20 ) ;
#34 = CLOSED_SHELL ( 'NONE', ( #101, #104, #103, #102 ) ) ;
#35 = PRODUCT ( '3141128', '3141128', '', ( #90 ) ) ;
#36 = CARTESIAN_POINT ( 'NONE',  ( 0.0000000000000000000, 0.0000000000000000000, -4.000000000000000000 ) ) ;
#37 = AXIS2_PLACEMENT_3D ( 'NONE', #54, #60, #106 ) ;
#38 = MECHANICAL_DESIGN_GEOMETRIC_PRESENTATION_REPRESENTATION (  '', ( #75 ), #76 ) ;
#39 = FACE_OUTER_BOUND ( 'NONE', #94, .T. ) ;
#40 =( GEOMETRIC_REPRESENTATION_CONTEXT ( 3 ) GLOBAL_UNCERTAINTY_ASSIGNED_CONTEXT ( ( #2 ) ) GLOBAL_UNIT_ASSIGNED_CONTEXT ( ( #112, #5, #108 ) ) REPRESENTATION_CONTEXT ( 'NONE', 'WORKASPACE' ) );
#41 = MANIFOLD_SOLID_BREP ( 'Aufsatz-Linear austragen1', #34 ) ;
#42 = ORIENTED_EDGE ( 'NONE', *, *, #23, .F. ) ;
#43 = LINE ( 'NONE', #59, #25 ) ;
#44 = AXIS2_PLACEMENT_3D ( 'NONE', #14, #119, #91 ) ;
#45 = FACE_OUTER_BOUND ( 'NONE', #98, .T. ) ;
#46 = APPLICATION_PROTOCOL_DEFINITION ( 'draft international standard', 'automotive_design', 1998, #15 ) ;
#47 = APPLICATION_PROTOCOL_DEFINITION ( 'draft international standard', 'automotive_design', 1998, #118 ) ;
#48 = DIRECTION ( 'NONE',  ( -0.0000000000000000000, -1.000000000000000000, -0.0000000000000000000 ) ) ;
#49 = ORIENTED_EDGE ( 'NONE', *, *, #53, .T. ) ;
#50 = CARTESIAN_POINT ( 'NONE',  ( 4.898587196589412800E-016, 500.0000000000000000, 4.000000000000000000 ) ) ;
#51 = AXIS2_PLACEMENT_3D ( 'NONE', #28, #63, #24 ) ;
#52 = ORIENTED_EDGE ( 'NONE', *, *, #107, .F. ) ;
#53 = EDGE_CURVE ( 'NONE', #131, #132, #86, .T. ) ;
#54 = CARTESIAN_POINT ( 'NONE',  ( 0.0000000000000000000, 500.0000000000000000, 0.0000000000000000000 ) ) ;
#55 = CARTESIAN_POINT ( 'NONE',  ( 4.898587196589412800E-016, 0.0000000000000000000, 4.000000000000000000 ) ) ;
#56 = PRODUCT_DEFINITION_SHAPE ( 'NONE', 'NONE',  #79 ) ;
#57 = DIRECTION ( 'NONE',  ( 0.0000000000000000000, -0.0000000000000000000, 1.000000000000000000 ) ) ;
#58 = PRODUCT_RELATED_PRODUCT_CATEGORY ( 'part', '', ( #35 ) ) ;
#59 = CARTESIAN_POINT ( 'NONE',  ( 0.0000000000000000000, 500.0000000000000000, -4.000000000000000000 ) ) ;
#60 = DIRECTION ( 'NONE',  ( 0.0000000000000000000, 1.000000000000000000, 0.0000000000000000000 ) ) ;
#61 =( LENGTH_UNIT ( ) NAMED_UNIT ( * ) SI_UNIT ( .MILLI., .METRE. ) );
#62 = SURFACE_SIDE_STYLE ('',( #7 ) ) ;
#63 = DIRECTION ( 'NONE',  ( 0.0000000000000000000, 1.000000000000000000, 0.0000000000000000000 ) ) ;
#64 = AXIS2_PLACEMENT_3D ( 'NONE', #78, #67, #110 ) ;
#65 = CYLINDRICAL_SURFACE ( 'NONE', #125, 4.000000000000000000 ) ;
#66 = CARTESIAN_POINT ( 'NONE',  ( 0.0000000000000000000, 0.0000000000000000000, 0.0000000000000000000 ) ) ;
#67 = DIRECTION ( 'NONE',  ( 0.0000000000000000000, 1.000000000000000000, 0.0000000000000000000 ) ) ;
#68 = ORIENTED_EDGE ( 'NONE', *, *, #53, .F. ) ;
#69 = VERTEX_POINT ( 'NONE', #50 ) ;
#70 = ORIENTED_EDGE ( 'NONE', *, *, #73, .F. ) ;
#71 = ORIENTED_EDGE ( 'NONE', *, *, #23, .T. ) ;
#72 = FACE_OUTER_BOUND ( 'NONE', #3, .T. ) ;
#73 = EDGE_CURVE ( 'NONE', #69, #26, #12, .T. ) ;
#74 = SURFACE_SIDE_STYLE ('',( #109 ) ) ;
#75 = STYLED_ITEM ( 'NONE', ( #139 ), #41 ) ;
#76 =( GEOMETRIC_REPRESENTATION_CONTEXT ( 3 ) GLOBAL_UNCERTAINTY_ASSIGNED_CONTEXT ( ( #138 ) ) GLOBAL_UNIT_ASSIGNED_CONTEXT ( ( #122, #29, #31 ) ) REPRESENTATION_CONTEXT ( 'NONE', 'WORKASPACE' ) );
#77 = DIRECTION ( 'NONE',  ( -0.0000000000000000000, -1.000000000000000000, -0.0000000000000000000 ) ) ;
#78 = CARTESIAN_POINT ( 'NONE',  ( 0.0000000000000000000, 0.0000000000000000000, 0.0000000000000000000 ) ) ;
#79 = PRODUCT_DEFINITION ( 'UNKNOWN', '', #18, #105 ) ;
#80 = DIRECTION ( 'NONE',  ( 0.0000000000000000000, 0.0000000000000000000, 1.000000000000000000 ) ) ;
#81 = COLOUR_RGB ( '',0.7529411764705882200, 0.7529411764705882200, 0.7529411764705882200 ) ;
#82 = AXIS2_PLACEMENT_3D ( 'NONE', #66, #99, #89 ) ;
#83 = UNCERTAINTY_MEASURE_WITH_UNIT (LENGTH_MEASURE( 1.000000000000000100E-005 ), #61, 'distance_accuracy_value', 'NONE');
#84 = AXIS2_PLACEMENT_3D ( 'NONE', #137, #134, #57 ) ;
#85 = CIRCLE ( 'NONE', #87, 4.000000000000000000 ) ;
#86 = CIRCLE ( 'NONE', #64, 4.000000000000000000 ) ;
#87 = AXIS2_PLACEMENT_3D ( 'NONE', #133, #128, #9 ) ;
#88 = FILL_AREA_STYLE ('',( #120 ) ) ;
#89 = DIRECTION ( 'NONE',  ( 1.000000000000000000, 0.0000000000000000000, 0.0000000000000000000 ) ) ;
#90 = PRODUCT_CONTEXT ( 'NONE', #118, 'mechanical' ) ;
#91 = DIRECTION ( 'NONE',  ( 0.0000000000000000000, 0.0000000000000000000, -1.000000000000000000 ) ) ;
#92 = DIRECTION ( 'NONE',  ( -0.0000000000000000000, -1.000000000000000000, -0.0000000000000000000 ) ) ;
#93 = CARTESIAN_POINT ( 'NONE',  ( 4.898587196589412800E-016, 500.0000000000000000, 4.000000000000000000 ) ) ;
#94 = EDGE_LOOP ( 'NONE', ( #68, #52 ) ) ;
#95 =( NAMED_UNIT ( * ) SI_UNIT ( $, .STERADIAN. ) SOLID_ANGLE_UNIT ( ) );
#96 = ORIENTED_EDGE ( 'NONE', *, *, #73, .T. ) ;
#97 = ORIENTED_EDGE ( 'NONE', *, *, #107, .T. ) ;
#98 = EDGE_LOOP ( 'NONE', ( #70, #11, #97, #16 ) ) ;
#99 = DIRECTION ( 'NONE',  ( 0.0000000000000000000, 0.0000000000000000000, 1.000000000000000000 ) ) ;
#100 = PRESENTATION_LAYER_ASSIGNMENT (  '', '', ( #75 ) ) ;
#101 = ADVANCED_FACE ( 'NONE', ( #45 ), #17, .T. ) ;
#102 = ADVANCED_FACE ( 'NONE', ( #39 ), #117, .F. ) ;
#103 = ADVANCED_FACE ( 'NONE', ( #72 ), #30, .T. ) ;
#104 = ADVANCED_FACE ( 'NONE', ( #127 ), #65, .T. ) ;
#105 = PRODUCT_DEFINITION_CONTEXT ( 'detailed design', #15, 'design' ) ;
#106 = DIRECTION ( 'NONE',  ( 0.0000000000000000000, 0.0000000000000000000, 1.000000000000000000 ) ) ;
#107 = EDGE_CURVE ( 'NONE', #132, #131, #135, .T. ) ;
#108 =( NAMED_UNIT ( * ) SI_UNIT ( $, .STERADIAN. ) SOLID_ANGLE_UNIT ( ) );
#109 = SURFACE_STYLE_FILL_AREA ( #130 ) ;
#110 = DIRECTION ( 'NONE',  ( 0.0000000000000000000, 0.0000000000000000000, 1.000000000000000000 ) ) ;
#111 = MECHANICAL_DESIGN_GEOMETRIC_PRESENTATION_REPRESENTATION (  '', ( #129 ), #114 ) ;
#112 =( LENGTH_UNIT ( ) NAMED_UNIT ( * ) SI_UNIT ( .MILLI., .METRE. ) );
#113 = DIRECTION ( 'NONE',  ( 0.0000000000000000000, 1.000000000000000000, 0.0000000000000000000 ) ) ;
#114 =( GEOMETRIC_REPRESENTATION_CONTEXT ( 3 ) GLOBAL_UNCERTAINTY_ASSIGNED_CONTEXT ( ( #83 ) ) GLOBAL_UNIT_ASSIGNED_CONTEXT ( ( #61, #124, #95 ) ) REPRESENTATION_CONTEXT ( 'NONE', 'WORKASPACE' ) );
#115 = CARTESIAN_POINT ( 'NONE',  ( 0.0000000000000000000, 500.0000000000000000, 0.0000000000000000000 ) ) ;
#116 = CARTESIAN_POINT ( 'NONE',  ( 0.0000000000000000000, 500.0000000000000000, -4.000000000000000000 ) ) ;
#117 = PLANE ( 'NONE',  #51 ) ;
#118 = APPLICATION_CONTEXT ( 'automotive_design' ) ;
#119 = DIRECTION ( 'NONE',  ( -0.0000000000000000000, -1.000000000000000000, -0.0000000000000000000 ) ) ;
#120 = FILL_AREA_STYLE_COLOUR ( '', #81 ) ;
#121 = AXIS2_PLACEMENT_3D ( 'NONE', #6, #113, #80 ) ;
#122 =( LENGTH_UNIT ( ) NAMED_UNIT ( * ) SI_UNIT ( .MILLI., .METRE. ) );
#123 = PRESENTATION_STYLE_ASSIGNMENT (( #10 ) ) ;
#124 =( NAMED_UNIT ( * ) PLANE_ANGLE_UNIT ( ) SI_UNIT ( $, .RADIAN. ) );
#125 = AXIS2_PLACEMENT_3D ( 'NONE', #115, #92, #13 ) ;
#126 = PRESENTATION_LAYER_ASSIGNMENT (  '', '', ( #129 ) ) ;
#127 = FACE_OUTER_BOUND ( 'NONE', #140, .T. ) ;
#128 = DIRECTION ( 'NONE',  ( 0.0000000000000000000, 1.000000000000000000, 0.0000000000000000000 ) ) ;
#129 = STYLED_ITEM ( 'NONE', ( #123 ), #20 ) ;
#130 = FILL_AREA_STYLE ('',( #27 ) ) ;
#131 = VERTEX_POINT ( 'NONE', #36 ) ;
#132 = VERTEX_POINT ( 'NONE', #55 ) ;
#133 = CARTESIAN_POINT ( 'NONE',  ( 0.0000000000000000000, 500.0000000000000000, 0.0000000000000000000 ) ) ;
#134 = DIRECTION ( 'NONE',  ( 0.0000000000000000000, 1.000000000000000000, 0.0000000000000000000 ) ) ;
#135 = CIRCLE ( 'NONE', #121, 4.000000000000000000 ) ;
#136 = EDGE_CURVE ( 'NONE', #26, #131, #43, .T. ) ;
#137 = CARTESIAN_POINT ( 'NONE',  ( 0.0000000000000000000, 500.0000000000000000, 0.0000000000000000000 ) ) ;
#138 = UNCERTAINTY_MEASURE_WITH_UNIT (LENGTH_MEASURE( 1.000000000000000100E-005 ), #122, 'distance_accuracy_value', 'NONE');
#139 = PRESENTATION_STYLE_ASSIGNMENT (( #21 ) ) ;
#140 = EDGE_LOOP ( 'NONE', ( #4, #42, #22, #49 ) ) ;
ENDSEC;
END-ISO-10303-21;
