ISO-10303-21;
HEADER;
FILE_DESCRIPTION (( 'STEP AP214' ),
    '1' );
FILE_NAME ('3402126.stp',
    '2018-03-27T12:28:41',
    ( '' ),
    ( '' ),
    'SwSTEP 2.0',
    'SolidWorks 2016',
    '' );
FILE_SCHEMA (( 'AUTOMOTIVE_DESIGN' ));
ENDSEC;

DATA;
#1 = DIRECTION ( 'NONE',  ( -1.000000000000000000, -0.0000000000000000000, -0.0000000000000000000 ) ) ;
#2 =( NAMED_UNIT ( * ) SI_UNIT ( $, .STERADIAN. ) SOLID_ANGLE_UNIT ( ) );
#3 = AXIS2_PLACEMENT_3D ( 'NONE', #4, #13, #24 ) ;
#4 = CARTESIAN_POINT ( 'NONE',  ( 0.0000000000000000000, 0.0000000000000000000, 0.0000000000000000000 ) ) ;
#5 = EDGE_CURVE ( 'NONE', #20, #102, #189, .T. ) ;
#6 = VECTOR ( 'NONE', #104, 1000.000000000000000 ) ;
#7 = VECTOR ( 'NONE', #45, 1000.000000000000000 ) ;
#8 = CARTESIAN_POINT ( 'NONE',  ( 0.0000000000000000000, 0.0000000000000000000, 0.0000000000000000000 ) ) ;
#9 = ORIENTED_EDGE ( 'NONE', *, *, #5, .T. ) ;
#10 = CIRCLE ( 'NONE', #18, 12.00000000000000000 ) ;
#11 = EDGE_CURVE ( 'NONE', #20, #177, #37, .T. ) ;
#12 = EDGE_CURVE ( 'NONE', #82, #214, #63, .T. ) ;
#13 = DIRECTION ( 'NONE',  ( -1.000000000000000000, -0.0000000000000000000, -0.0000000000000000000 ) ) ;
#14 = FACE_OUTER_BOUND ( 'NONE', #111, .T. ) ;
#15 = UNCERTAINTY_MEASURE_WITH_UNIT (LENGTH_MEASURE( 1.000000000000000100E-005 ), #110, 'distance_accuracy_value', 'NONE');
#16 = APPLICATION_PROTOCOL_DEFINITION ( 'draft international standard', 'automotive_design', 1998, #40 ) ;
#17 =( NAMED_UNIT ( * ) PLANE_ANGLE_UNIT ( ) SI_UNIT ( $, .RADIAN. ) );
#18 = AXIS2_PLACEMENT_3D ( 'NONE', #91, #1, #125 ) ;
#19 = ORIENTED_EDGE ( 'NONE', *, *, #12, .F. ) ;
#20 = VERTEX_POINT ( 'NONE', #193 ) ;
#21 = DIRECTION ( 'NONE',  ( 0.0000000000000000000, 0.0000000000000000000, -1.000000000000000000 ) ) ;
#22 = DIRECTION ( 'NONE',  ( 0.0000000000000000000, 0.0000000000000000000, 1.000000000000000000 ) ) ;
#23 = EDGE_CURVE ( 'NONE', #102, #210, #88, .T. ) ;
#24 = DIRECTION ( 'NONE',  ( 0.0000000000000000000, 0.0000000000000000000, 1.000000000000000000 ) ) ;
#25 = FACE_OUTER_BOUND ( 'NONE', #123, .T. ) ;
#26 = EDGE_CURVE ( 'NONE', #102, #20, #201, .T. ) ;
#27 = DIRECTION ( 'NONE',  ( 0.0000000000000000000, 0.0000000000000000000, 1.000000000000000000 ) ) ;
#28 = FACE_BOUND ( 'NONE', #159, .T. ) ;
#29 =( LENGTH_UNIT ( ) NAMED_UNIT ( * ) SI_UNIT ( .MILLI., .METRE. ) );
#30 = DIRECTION ( 'NONE',  ( -1.000000000000000000, -0.0000000000000000000, -0.0000000000000000000 ) ) ;
#31 = SURFACE_STYLE_USAGE ( .BOTH. , #92 ) ;
#32 = EDGE_CURVE ( 'NONE', #113, #90, #10, .T. ) ;
#33 = MECHANICAL_DESIGN_GEOMETRIC_PRESENTATION_REPRESENTATION (  '', ( #99 ), #187 ) ;
#34 = PRODUCT ( '3402126', '3402126', '', ( #163 ) ) ;
#35 = AXIS2_PLACEMENT_3D ( 'NONE', #130, #75, #212 ) ;
#36 = CIRCLE ( 'NONE', #206, 12.00000000000000000 ) ;
#37 = LINE ( 'NONE', #131, #161 ) ;
#38 = EDGE_LOOP ( 'NONE', ( #209, #186 ) ) ;
#39 = CARTESIAN_POINT ( 'NONE',  ( -2.500000000000001300, 12.00000000000000000, 0.0000000000000000000 ) ) ;
#40 = APPLICATION_CONTEXT ( 'automotive_design' ) ;
#41 = EDGE_CURVE ( 'NONE', #210, #177, #128, .T. ) ;
#42 = ORIENTED_EDGE ( 'NONE', *, *, #23, .T. ) ;
#43 = ORIENTED_EDGE ( 'NONE', *, *, #32, .T. ) ;
#44 = DIRECTION ( 'NONE',  ( 0.0000000000000000000, 0.0000000000000000000, 1.000000000000000000 ) ) ;
#45 = DIRECTION ( 'NONE',  ( -1.000000000000000000, -0.0000000000000000000, -0.0000000000000000000 ) ) ;
#46 = CYLINDRICAL_SURFACE ( 'NONE', #183, 12.00000000000000000 ) ;
#47 = EDGE_CURVE ( 'NONE', #90, #113, #155, .T. ) ;
#48 = MANIFOLD_SOLID_BREP ( 'Base-Revolve', #179 ) ;
#49 = EDGE_LOOP ( 'NONE', ( #94, #9 ) ) ;
#50 = PRESENTATION_STYLE_ASSIGNMENT (( #101 ) ) ;
#51 = ORIENTED_EDGE ( 'NONE', *, *, #144, .T. ) ;
#52 = CARTESIAN_POINT ( 'NONE',  ( -2.500000000000002200, 0.0000000000000000000, 0.0000000000000000000 ) ) ;
#53 = EDGE_CURVE ( 'NONE', #177, #210, #107, .T. ) ;
#54 = EDGE_CURVE ( 'NONE', #214, #82, #36, .T. ) ;
#55 = CARTESIAN_POINT ( 'NONE',  ( 0.0000000000000000000, 0.0000000000000000000, 0.0000000000000000000 ) ) ;
#56 = FILL_AREA_STYLE ('',( #134 ) ) ;
#57 = SURFACE_SIDE_STYLE ('',( #126 ) ) ;
#58 = COLOUR_RGB ( '',0.7764705882352941300, 0.7568627450980391900, 0.7372549019607843600 ) ;
#59 = CARTESIAN_POINT ( 'NONE',  ( -34.92499999999994700, 0.0000000000000000000, 0.0000000000000000000 ) ) ;
#60 = DIRECTION ( 'NONE',  ( -1.000000000000000000, -0.0000000000000000000, -0.0000000000000000000 ) ) ;
#61 = CARTESIAN_POINT ( 'NONE',  ( 0.0000000000000000000, 0.0000000000000000000, 12.00000000000000000 ) ) ;
#62 = ORIENTED_EDGE ( 'NONE', *, *, #53, .F. ) ;
#63 = CIRCLE ( 'NONE', #35, 12.00000000000000000 ) ;
#64 = PRESENTATION_STYLE_ASSIGNMENT (( #31 ) ) ;
#65 = ADVANCED_FACE ( 'NONE', ( #136 ), #173, .F. ) ;
#66 = ADVANCED_FACE ( 'NONE', ( #14 ), #200, .F. ) ;
#67 = ADVANCED_FACE ( 'NONE', ( #25 ), #100, .T. ) ;
#68 = ADVANCED_FACE ( 'NONE', ( #194, #141 ), #145, .F. ) ;
#69 = ADVANCED_FACE ( 'NONE', ( #74 ), #46, .T. ) ;
#70 = DIRECTION ( 'NONE',  ( -1.000000000000000000, -0.0000000000000000000, -0.0000000000000000000 ) ) ;
#71 = ADVANCED_FACE ( 'NONE', ( #28, #139 ), #196, .F. ) ;
#72 = CARTESIAN_POINT ( 'NONE',  ( -2.500000000000002200, 0.0000000000000000000, 0.0000000000000000000 ) ) ;
#73 = LINE ( 'NONE', #203, #76 ) ;
#74 = FACE_OUTER_BOUND ( 'NONE', #97, .T. ) ;
#75 = DIRECTION ( 'NONE',  ( -1.000000000000000000, -0.0000000000000000000, -0.0000000000000000000 ) ) ;
#76 = VECTOR ( 'NONE', #83, 1000.000000000000000 ) ;
#77 = DIRECTION ( 'NONE',  ( -1.000000000000000000, -0.0000000000000000000, -0.0000000000000000000 ) ) ;
#78 = DIRECTION ( 'NONE',  ( -0.0000000000000000000, 0.0000000000000000000, 1.000000000000000000 ) ) ;
#79 = LINE ( 'NONE', #197, #6 ) ;
#80 = ORIENTED_EDGE ( 'NONE', *, *, #11, .T. ) ;
#81 = CARTESIAN_POINT ( 'NONE',  ( -2.500000000000002200, 0.0000000000000000000, 0.0000000000000000000 ) ) ;
#82 = VERTEX_POINT ( 'NONE', #171 ) ;
#83 = DIRECTION ( 'NONE',  ( -1.000000000000000000, -0.0000000000000000000, -0.0000000000000000000 ) ) ;
#84 = CARTESIAN_POINT ( 'NONE',  ( 0.0000000000000000000, 6.500000000000000000, 0.0000000000000000000 ) ) ;
#85 = EDGE_LOOP ( 'NONE', ( #109, #80, #202, #86 ) ) ;
#86 = ORIENTED_EDGE ( 'NONE', *, *, #23, .F. ) ;
#87 = ORIENTED_EDGE ( 'NONE', *, *, #150, .F. ) ;
#88 = LINE ( 'NONE', #192, #7 ) ;
#89 = DIRECTION ( 'NONE',  ( -1.000000000000000000, -0.0000000000000000000, -0.0000000000000000000 ) ) ;
#90 = VERTEX_POINT ( 'NONE', #190 ) ;
#91 = CARTESIAN_POINT ( 'NONE',  ( 0.0000000000000000000, 0.0000000000000000000, 0.0000000000000000000 ) ) ;
#92 = SURFACE_SIDE_STYLE ('',( #135 ) ) ;
#93 = COLOUR_RGB ( '',0.7764705882352941300, 0.7568627450980391900, 0.7372549019607843600 ) ;
#94 = ORIENTED_EDGE ( 'NONE', *, *, #26, .T. ) ;
#95 = CARTESIAN_POINT ( 'NONE',  ( 0.0000000000000000000, 0.0000000000000000000, 0.0000000000000000000 ) ) ;
#96 =( NAMED_UNIT ( * ) PLANE_ANGLE_UNIT ( ) SI_UNIT ( $, .RADIAN. ) );
#97 = EDGE_LOOP ( 'NONE', ( #43, #51, #19, #87 ) ) ;
#98 = UNCERTAINTY_MEASURE_WITH_UNIT (LENGTH_MEASURE( 1.000000000000000100E-005 ), #29, 'distance_accuracy_value', 'NONE');
#99 = STYLED_ITEM ( 'NONE', ( #64 ), #48 ) ;
#100 = CYLINDRICAL_SURFACE ( 'NONE', #191, 12.00000000000000000 ) ;
#101 = SURFACE_STYLE_USAGE ( .BOTH. , #57 ) ;
#102 = VERTEX_POINT ( 'NONE', #182 ) ;
#103 = CARTESIAN_POINT ( 'NONE',  ( -2.500000000000002200, 1.469576158976823900E-015, -12.00000000000000000 ) ) ;
#104 = DIRECTION ( 'NONE',  ( -1.000000000000000000, -0.0000000000000000000, -0.0000000000000000000 ) ) ;
#105 = AXIS2_PLACEMENT_3D ( 'NONE', #95, #204, #181 ) ;
#106 = PRESENTATION_LAYER_ASSIGNMENT (  '', '', ( #99 ) ) ;
#107 = CIRCLE ( 'NONE', #199, 6.500000000000000000 ) ;
#108 = CARTESIAN_POINT ( 'NONE',  ( -2.500000000000002200, 0.0000000000000000000, 6.500000000000000000 ) ) ;
#109 = ORIENTED_EDGE ( 'NONE', *, *, #5, .F. ) ;
#110 =( LENGTH_UNIT ( ) NAMED_UNIT ( * ) SI_UNIT ( .MILLI., .METRE. ) );
#111 = EDGE_LOOP ( 'NONE', ( #112, #207, #42, #147 ) ) ;
#112 = ORIENTED_EDGE ( 'NONE', *, *, #11, .F. ) ;
#113 = VERTEX_POINT ( 'NONE', #61 ) ;
#114 = FILL_AREA_STYLE ('',( #116 ) ) ;
#115 =( NAMED_UNIT ( * ) SI_UNIT ( $, .STERADIAN. ) SOLID_ANGLE_UNIT ( ) );
#116 = FILL_AREA_STYLE_COLOUR ( '', #58 ) ;
#117 = DIRECTION ( 'NONE',  ( 0.0000000000000000000, 0.0000000000000000000, 1.000000000000000000 ) ) ;
#118 = DIRECTION ( 'NONE',  ( -1.000000000000000000, -0.0000000000000000000, -0.0000000000000000000 ) ) ;
#119 =( NAMED_UNIT ( * ) PLANE_ANGLE_UNIT ( ) SI_UNIT ( $, .RADIAN. ) );
#120 = ORIENTED_EDGE ( 'NONE', *, *, #47, .T. ) ;
#121 = CARTESIAN_POINT ( 'NONE',  ( -34.92499999999994700, 0.0000000000000000000, 0.0000000000000000000 ) ) ;
#122 = ORIENTED_EDGE ( 'NONE', *, *, #144, .F. ) ;
#123 = EDGE_LOOP ( 'NONE', ( #122, #120, #152, #175 ) ) ;
#124 = PRODUCT_DEFINITION_SHAPE ( 'NONE', 'NONE',  #165 ) ;
#125 = DIRECTION ( 'NONE',  ( 0.0000000000000000000, 0.0000000000000000000, 1.000000000000000000 ) ) ;
#126 = SURFACE_STYLE_FILL_AREA ( #56 ) ;
#127 = AXIS2_PLACEMENT_3D ( 'NONE', #72, #151, #157 ) ;
#128 = CIRCLE ( 'NONE', #127, 6.500000000000000000 ) ;
#129 = DIRECTION ( 'NONE',  ( -1.000000000000000000, -0.0000000000000000000, -0.0000000000000000000 ) ) ;
#130 = CARTESIAN_POINT ( 'NONE',  ( -2.500000000000002200, 0.0000000000000000000, 0.0000000000000000000 ) ) ;
#131 = CARTESIAN_POINT ( 'NONE',  ( -34.92499999999994700, 7.960204194457795500E-016, -6.500000000000000000 ) ) ;
#132 =( NAMED_UNIT ( * ) SI_UNIT ( $, .STERADIAN. ) SOLID_ANGLE_UNIT ( ) );
#133 = SHAPE_DEFINITION_REPRESENTATION ( #124, #143 ) ;
#134 = FILL_AREA_STYLE_COLOUR ( '', #93 ) ;
#135 = SURFACE_STYLE_FILL_AREA ( #114 ) ;
#136 = FACE_OUTER_BOUND ( 'NONE', #85, .T. ) ;
#137 = AXIS2_PLACEMENT_3D ( 'NONE', #121, #77, #44 ) ;
#138 = PRODUCT_RELATED_PRODUCT_CATEGORY ( 'part', '', ( #34 ) ) ;
#139 = FACE_OUTER_BOUND ( 'NONE', #38, .T. ) ;
#140 = DIRECTION ( 'NONE',  ( 0.0000000000000000000, 0.0000000000000000000, 1.000000000000000000 ) ) ;
#141 = FACE_BOUND ( 'NONE', #49, .T. ) ;
#142 = CARTESIAN_POINT ( 'NONE',  ( -2.500000000000002200, 7.960204194457795500E-016, -6.500000000000000000 ) ) ;
#143 = ADVANCED_BREP_SHAPE_REPRESENTATION ( '3402126', ( #48, #156 ), #172 ) ;
#144 = EDGE_CURVE ( 'NONE', #90, #214, #79, .T. ) ;
#145 = PLANE ( 'NONE',  #208 ) ;
#146 = CARTESIAN_POINT ( 'NONE',  ( -34.92499999999994700, 0.0000000000000000000, 0.0000000000000000000 ) ) ;
#147 = ORIENTED_EDGE ( 'NONE', *, *, #41, .T. ) ;
#148 = ORIENTED_EDGE ( 'NONE', *, *, #47, .F. ) ;
#149 = DIRECTION ( 'NONE',  ( 1.000000000000000000, 0.0000000000000000000, 0.0000000000000000000 ) ) ;
#150 = EDGE_CURVE ( 'NONE', #113, #82, #73, .T. ) ;
#151 = DIRECTION ( 'NONE',  ( -1.000000000000000000, -0.0000000000000000000, -0.0000000000000000000 ) ) ;
#152 = ORIENTED_EDGE ( 'NONE', *, *, #150, .T. ) ;
#153 = STYLED_ITEM ( 'NONE', ( #50 ), #143 ) ;
#154 = PRESENTATION_LAYER_ASSIGNMENT (  '', '', ( #153 ) ) ;
#155 = CIRCLE ( 'NONE', #213, 12.00000000000000000 ) ;
#156 = AXIS2_PLACEMENT_3D ( 'NONE', #55, #140, #149 ) ;
#157 = DIRECTION ( 'NONE',  ( 0.0000000000000000000, 0.0000000000000000000, 1.000000000000000000 ) ) ;
#158 = EDGE_LOOP ( 'NONE', ( #184, #148 ) ) ;
#159 = EDGE_LOOP ( 'NONE', ( #166, #62 ) ) ;
#160 = DIRECTION ( 'NONE',  ( 0.0000000000000000000, 0.0000000000000000000, 1.000000000000000000 ) ) ;
#161 = VECTOR ( 'NONE', #188, 1000.000000000000000 ) ;
#162 = MECHANICAL_DESIGN_GEOMETRIC_PRESENTATION_REPRESENTATION (  '', ( #153 ), #180 ) ;
#163 = PRODUCT_CONTEXT ( 'NONE', #40, 'mechanical' ) ;
#164 = DIRECTION ( 'NONE',  ( 0.0000000000000000000, 0.0000000000000000000, 1.000000000000000000 ) ) ;
#165 = PRODUCT_DEFINITION ( 'UNKNOWN', '', #211, #174 ) ;
#166 = ORIENTED_EDGE ( 'NONE', *, *, #41, .F. ) ;
#167 = DIRECTION ( 'NONE',  ( 1.000000000000000000, 0.0000000000000000000, 0.0000000000000000000 ) ) ;
#168 =( LENGTH_UNIT ( ) NAMED_UNIT ( * ) SI_UNIT ( .MILLI., .METRE. ) );
#169 = UNCERTAINTY_MEASURE_WITH_UNIT (LENGTH_MEASURE( 1.000000000000000100E-005 ), #168, 'distance_accuracy_value', 'NONE');
#170 = APPLICATION_CONTEXT ( 'automotive_design' ) ;
#171 = CARTESIAN_POINT ( 'NONE',  ( -2.500000000000002200, 0.0000000000000000000, 12.00000000000000000 ) ) ;
#172 =( GEOMETRIC_REPRESENTATION_CONTEXT ( 3 ) GLOBAL_UNCERTAINTY_ASSIGNED_CONTEXT ( ( #169 ) ) GLOBAL_UNIT_ASSIGNED_CONTEXT ( ( #168, #17, #2 ) ) REPRESENTATION_CONTEXT ( 'NONE', 'WORKASPACE' ) );
#173 = CYLINDRICAL_SURFACE ( 'NONE', #137, 6.500000000000000000 ) ;
#174 = PRODUCT_DEFINITION_CONTEXT ( 'detailed design', #170, 'design' ) ;
#175 = ORIENTED_EDGE ( 'NONE', *, *, #54, .F. ) ;
#176 = DIRECTION ( 'NONE',  ( -1.000000000000000000, 0.0000000000000000000, -0.0000000000000000000 ) ) ;
#177 = VERTEX_POINT ( 'NONE', #142 ) ;
#178 = AXIS2_PLACEMENT_3D ( 'NONE', #39, #167, #21 ) ;
#179 = CLOSED_SHELL ( 'NONE', ( #69, #65, #66, #68, #67, #71 ) ) ;
#180 =( GEOMETRIC_REPRESENTATION_CONTEXT ( 3 ) GLOBAL_UNCERTAINTY_ASSIGNED_CONTEXT ( ( #15 ) ) GLOBAL_UNIT_ASSIGNED_CONTEXT ( ( #110, #119, #132 ) ) REPRESENTATION_CONTEXT ( 'NONE', 'WORKASPACE' ) );
#181 = DIRECTION ( 'NONE',  ( 0.0000000000000000000, 0.0000000000000000000, 1.000000000000000000 ) ) ;
#182 = CARTESIAN_POINT ( 'NONE',  ( 0.0000000000000000000, 0.0000000000000000000, 6.500000000000000000 ) ) ;
#183 = AXIS2_PLACEMENT_3D ( 'NONE', #59, #118, #27 ) ;
#184 = ORIENTED_EDGE ( 'NONE', *, *, #32, .F. ) ;
#185 = DIRECTION ( 'NONE',  ( 0.0000000000000000000, 0.0000000000000000000, 1.000000000000000000 ) ) ;
#186 = ORIENTED_EDGE ( 'NONE', *, *, #54, .T. ) ;
#187 =( GEOMETRIC_REPRESENTATION_CONTEXT ( 3 ) GLOBAL_UNCERTAINTY_ASSIGNED_CONTEXT ( ( #98 ) ) GLOBAL_UNIT_ASSIGNED_CONTEXT ( ( #29, #96, #115 ) ) REPRESENTATION_CONTEXT ( 'NONE', 'WORKASPACE' ) );
#188 = DIRECTION ( 'NONE',  ( -1.000000000000000000, -0.0000000000000000000, -0.0000000000000000000 ) ) ;
#189 = CIRCLE ( 'NONE', #105, 6.500000000000000000 ) ;
#190 = CARTESIAN_POINT ( 'NONE',  ( 0.0000000000000000000, 1.469576158976823900E-015, -12.00000000000000000 ) ) ;
#191 = AXIS2_PLACEMENT_3D ( 'NONE', #205, #129, #22 ) ;
#192 = CARTESIAN_POINT ( 'NONE',  ( -34.92499999999994700, 0.0000000000000000000, 6.500000000000000000 ) ) ;
#193 = CARTESIAN_POINT ( 'NONE',  ( 0.0000000000000000000, 7.960204194457795500E-016, -6.500000000000000000 ) ) ;
#194 = FACE_OUTER_BOUND ( 'NONE', #158, .T. ) ;
#195 = AXIS2_PLACEMENT_3D ( 'NONE', #146, #60, #117 ) ;
#196 = PLANE ( 'NONE',  #178 ) ;
#197 = CARTESIAN_POINT ( 'NONE',  ( -34.92499999999994700, 1.469576158976823900E-015, -12.00000000000000000 ) ) ;
#198 = APPLICATION_PROTOCOL_DEFINITION ( 'draft international standard', 'automotive_design', 1998, #170 ) ;
#199 = AXIS2_PLACEMENT_3D ( 'NONE', #81, #89, #164 ) ;
#200 = CYLINDRICAL_SURFACE ( 'NONE', #195, 6.500000000000000000 ) ;
#201 = CIRCLE ( 'NONE', #3, 6.500000000000000000 ) ;
#202 = ORIENTED_EDGE ( 'NONE', *, *, #53, .T. ) ;
#203 = CARTESIAN_POINT ( 'NONE',  ( -34.92499999999994700, 0.0000000000000000000, 12.00000000000000000 ) ) ;
#204 = DIRECTION ( 'NONE',  ( -1.000000000000000000, -0.0000000000000000000, -0.0000000000000000000 ) ) ;
#205 = CARTESIAN_POINT ( 'NONE',  ( -34.92499999999994700, 0.0000000000000000000, 0.0000000000000000000 ) ) ;
#206 = AXIS2_PLACEMENT_3D ( 'NONE', #52, #30, #160 ) ;
#207 = ORIENTED_EDGE ( 'NONE', *, *, #26, .F. ) ;
#208 = AXIS2_PLACEMENT_3D ( 'NONE', #84, #176, #78 ) ;
#209 = ORIENTED_EDGE ( 'NONE', *, *, #12, .T. ) ;
#210 = VERTEX_POINT ( 'NONE', #108 ) ;
#211 = PRODUCT_DEFINITION_FORMATION_WITH_SPECIFIED_SOURCE ( 'ANY', '', #34, .NOT_KNOWN. ) ;
#212 = DIRECTION ( 'NONE',  ( 0.0000000000000000000, 0.0000000000000000000, 1.000000000000000000 ) ) ;
#213 = AXIS2_PLACEMENT_3D ( 'NONE', #8, #70, #185 ) ;
#214 = VERTEX_POINT ( 'NONE', #103 ) ;
ENDSEC;
END-ISO-10303-21;
