ISO-10303-21;
HEADER;
FILE_DESCRIPTION (( 'STEP AP214' ),
    '1' );
FILE_NAME ('5021480_KSTP1.stp',
    '2018-08-28T08:09:45',
    ( '' ),
    ( '' ),
    'SwSTEP 2.0',
    'SolidWorks 2016',
    '' );
FILE_SCHEMA (( 'AUTOMOTIVE_DESIGN' ));
ENDSEC;

DATA;
#1 = AXIS2_PLACEMENT_3D ( 'NONE', #174, #73, #86 ) ;
#2 = COLOUR_RGB ( '',0.7529411764705882200, 0.7529411764705882200, 0.7529411764705882200 ) ;
#3 = ORIENTED_EDGE ( 'NONE', *, *, #28, .F. ) ;
#4 = APPLICATION_CONTEXT ( 'automotive_design' ) ;
#5 = UNCERTAINTY_MEASURE_WITH_UNIT (LENGTH_MEASURE( 1.000000000000000100E-005 ), #188, 'distance_accuracy_value', 'NONE');
#6 = PLANE ( 'NONE',  #137 ) ;
#7 =( NAMED_UNIT ( * ) PLANE_ANGLE_UNIT ( ) SI_UNIT ( $, .RADIAN. ) );
#8 = FILL_AREA_STYLE_COLOUR ( '', #166 ) ;
#9 = FILL_AREA_STYLE ('',( #140 ) ) ;
#10 = FILL_AREA_STYLE ('',( #191 ) ) ;
#11 = UNCERTAINTY_MEASURE_WITH_UNIT (LENGTH_MEASURE( 1.000000000000000100E-005 ), #173, 'distance_accuracy_value', 'NONE');
#12 = SURFACE_STYLE_USAGE ( .BOTH. , #47 ) ;
#13 = PRESENTATION_LAYER_ASSIGNMENT (  '', '', ( #107 ) ) ;
#14 = VECTOR ( 'NONE', #161, 1000.000000000000000 ) ;
#15 = MANIFOLD_SOLID_BREP ( 'Boss-Extrude1', #110 ) ;
#16 = AXIS2_PLACEMENT_3D ( 'NONE', #88, #75, #51 ) ;
#17 = FACE_OUTER_BOUND ( 'NONE', #103, .T. ) ;
#18 = STYLED_ITEM ( 'NONE', ( #149 ), #145 ) ;
#19 = STYLED_ITEM ( 'NONE', ( #165 ), #43 ) ;
#20 = FACE_OUTER_BOUND ( 'NONE', #99, .T. ) ;
#21 = DIRECTION ( 'NONE',  ( 0.0000000000000000000, 0.0000000000000000000, 1.000000000000000000 ) ) ;
#22 =( LENGTH_UNIT ( ) NAMED_UNIT ( * ) SI_UNIT ( .MILLI., .METRE. ) );
#23 =( GEOMETRIC_REPRESENTATION_CONTEXT ( 3 ) GLOBAL_UNCERTAINTY_ASSIGNED_CONTEXT ( ( #60 ) ) GLOBAL_UNIT_ASSIGNED_CONTEXT ( ( #111, #7, #24 ) ) REPRESENTATION_CONTEXT ( 'NONE', 'WORKASPACE' ) );
#24 =( NAMED_UNIT ( * ) SI_UNIT ( $, .STERADIAN. ) SOLID_ANGLE_UNIT ( ) );
#25 = CARTESIAN_POINT ( 'NONE',  ( 4.000000000000000000, 4.898587196589412800E-016, 0.0000000000000000000 ) ) ;
#26 = FILL_AREA_STYLE ('',( #8 ) ) ;
#27 =( NAMED_UNIT ( * ) PLANE_ANGLE_UNIT ( ) SI_UNIT ( $, .RADIAN. ) );
#28 = EDGE_CURVE ( 'NONE', #199, #59, #185, .T. ) ;
#29 = CIRCLE ( 'NONE', #104, 4.000000000000000000 ) ;
#30 = EDGE_CURVE ( 'NONE', #35, #199, #80, .T. ) ;
#31 = ORIENTED_EDGE ( 'NONE', *, *, #129, .F. ) ;
#32 = ORIENTED_EDGE ( 'NONE', *, *, #30, .T. ) ;
#33 = UNCERTAINTY_MEASURE_WITH_UNIT (LENGTH_MEASURE( 1.000000000000000100E-005 ), #22, 'distance_accuracy_value', 'NONE');
#34 = PRESENTATION_LAYER_ASSIGNMENT (  '', '', ( #18 ) ) ;
#35 = VERTEX_POINT ( 'NONE', #113 ) ;
#36 = PRODUCT_DEFINITION_FORMATION_WITH_SPECIFIED_SOURCE ( 'ANY', '', #143, .NOT_KNOWN. ) ;
#37 =( GEOMETRIC_REPRESENTATION_CONTEXT ( 3 ) GLOBAL_UNCERTAINTY_ASSIGNED_CONTEXT ( ( #33 ) ) GLOBAL_UNIT_ASSIGNED_CONTEXT ( ( #22, #50, #68 ) ) REPRESENTATION_CONTEXT ( 'NONE', 'WORKASPACE' ) );
#38 = PLANE ( 'NONE',  #1 ) ;
#39 = ORIENTED_EDGE ( 'NONE', *, *, #146, .T. ) ;
#40 = PRODUCT_CONTEXT ( 'NONE', #4, 'mechanical' ) ;
#41 = DIRECTION ( 'NONE',  ( 1.000000000000000000, 0.0000000000000000000, 0.0000000000000000000 ) ) ;
#42 = CARTESIAN_POINT ( 'NONE',  ( 0.0000000000000000000, 0.0000000000000000000, 100000.0000000000000 ) ) ;
#43 = ADVANCED_FACE ( 'NONE', ( #142 ), #94, .T. ) ;
#44 = COLOUR_RGB ( '',0.7529411764705882200, 0.7529411764705882200, 0.7529411764705882200 ) ;
#45 = DIRECTION ( 'NONE',  ( 0.0000000000000000000, 0.0000000000000000000, 1.000000000000000000 ) ) ;
#46 = SURFACE_STYLE_USAGE ( .BOTH. , #72 ) ;
#47 = SURFACE_SIDE_STYLE ('',( #152 ) ) ;
#48 = MECHANICAL_DESIGN_GEOMETRIC_PRESENTATION_REPRESENTATION (  '', ( #18 ), #37 ) ;
#49 = EDGE_CURVE ( 'NONE', #35, #130, #123, .T. ) ;
#50 =( NAMED_UNIT ( * ) PLANE_ANGLE_UNIT ( ) SI_UNIT ( $, .RADIAN. ) );
#51 = DIRECTION ( 'NONE',  ( 1.000000000000000000, 0.0000000000000000000, 0.0000000000000000000 ) ) ;
#52 = CARTESIAN_POINT ( 'NONE',  ( 0.0000000000000000000, 0.0000000000000000000, 0.0000000000000000000 ) ) ;
#53 = PRODUCT_DEFINITION_CONTEXT ( 'detailed design', #154, 'design' ) ;
#54 = DIRECTION ( 'NONE',  ( 0.0000000000000000000, 0.0000000000000000000, 1.000000000000000000 ) ) ;
#55 = DIRECTION ( 'NONE',  ( -1.000000000000000000, 0.0000000000000000000, 0.0000000000000000000 ) ) ;
#56 = CYLINDRICAL_SURFACE ( 'NONE', #183, 4.000000000000000000 ) ;
#57 = PRESENTATION_LAYER_ASSIGNMENT (  '', '', ( #83 ) ) ;
#58 = SURFACE_STYLE_FILL_AREA ( #26 ) ;
#59 = VERTEX_POINT ( 'NONE', #25 ) ;
#60 = UNCERTAINTY_MEASURE_WITH_UNIT (LENGTH_MEASURE( 1.000000000000000100E-005 ), #111, 'distance_accuracy_value', 'NONE');
#61 = MECHANICAL_DESIGN_GEOMETRIC_PRESENTATION_REPRESENTATION (  '', ( #144 ), #116 ) ;
#62 = ADVANCED_FACE ( 'NONE', ( #115 ), #56, .T. ) ;
#63 = MECHANICAL_DESIGN_GEOMETRIC_PRESENTATION_REPRESENTATION (  '', ( #83 ), #131 ) ;
#64 = PRESENTATION_STYLE_ASSIGNMENT (( #71 ) ) ;
#65 = SURFACE_STYLE_FILL_AREA ( #9 ) ;
#66 = SURFACE_SIDE_STYLE ('',( #117 ) ) ;
#67 = COLOUR_RGB ( '',0.7529411764705882200, 0.7529411764705882200, 0.7529411764705882200 ) ;
#68 =( NAMED_UNIT ( * ) SI_UNIT ( $, .STERADIAN. ) SOLID_ANGLE_UNIT ( ) );
#69 = SURFACE_STYLE_USAGE ( .BOTH. , #124 ) ;
#70 =( NAMED_UNIT ( * ) SI_UNIT ( $, .STERADIAN. ) SOLID_ANGLE_UNIT ( ) );
#71 = SURFACE_STYLE_USAGE ( .BOTH. , #134 ) ;
#72 = SURFACE_SIDE_STYLE ('',( #153 ) ) ;
#73 = DIRECTION ( 'NONE',  ( 0.0000000000000000000, 0.0000000000000000000, 1.000000000000000000 ) ) ;
#74 = SURFACE_SIDE_STYLE ('',( #65 ) ) ;
#75 = DIRECTION ( 'NONE',  ( 0.0000000000000000000, 0.0000000000000000000, 1.000000000000000000 ) ) ;
#76 = ORIENTED_EDGE ( 'NONE', *, *, #30, .F. ) ;
#77 = ORIENTED_EDGE ( 'NONE', *, *, #146, .F. ) ;
#78 = EDGE_CURVE ( 'NONE', #130, #59, #182, .T. ) ;
#79 = PRESENTATION_STYLE_ASSIGNMENT (( #82 ) ) ;
#80 = CIRCLE ( 'NONE', #16, 4.000000000000000000 ) ;
#81 = APPLICATION_PROTOCOL_DEFINITION ( 'draft international standard', 'automotive_design', 1998, #154 ) ;
#82 = SURFACE_STYLE_USAGE ( .BOTH. , #66 ) ;
#83 = STYLED_ITEM ( 'NONE', ( #118 ), #15 ) ;
#84 =( NAMED_UNIT ( * ) SI_UNIT ( $, .STERADIAN. ) SOLID_ANGLE_UNIT ( ) );
#85 = DIRECTION ( 'NONE',  ( -0.0000000000000000000, -0.0000000000000000000, -1.000000000000000000 ) ) ;
#86 = DIRECTION ( 'NONE',  ( 1.000000000000000000, 0.0000000000000000000, -0.0000000000000000000 ) ) ;
#87 = CARTESIAN_POINT ( 'NONE',  ( 0.0000000000000000000, 0.0000000000000000000, 100000.0000000000000 ) ) ;
#88 = CARTESIAN_POINT ( 'NONE',  ( 0.0000000000000000000, 0.0000000000000000000, 100000.0000000000000 ) ) ;
#89 = DIRECTION ( 'NONE',  ( 1.000000000000000000, 0.0000000000000000000, 0.0000000000000000000 ) ) ;
#90 = AXIS2_PLACEMENT_3D ( 'NONE', #163, #179, #89 ) ;
#91 = ADVANCED_FACE ( 'NONE', ( #20 ), #38, .F. ) ;
#92 = ORIENTED_EDGE ( 'NONE', *, *, #78, .F. ) ;
#93 = MECHANICAL_DESIGN_GEOMETRIC_PRESENTATION_REPRESENTATION (  '', ( #107 ), #108 ) ;
#94 = CYLINDRICAL_SURFACE ( 'NONE', #193, 4.000000000000000000 ) ;
#95 = CARTESIAN_POINT ( 'NONE',  ( 0.0000000000000000000, 0.0000000000000000000, 100000.0000000000000 ) ) ;
#96 = MECHANICAL_DESIGN_GEOMETRIC_PRESENTATION_REPRESENTATION (  '', ( #189 ), #23 ) ;
#97 = CARTESIAN_POINT ( 'NONE',  ( -4.000000000000000000, 0.0000000000000000000, 0.0000000000000000000 ) ) ;
#98 =( NAMED_UNIT ( * ) SI_UNIT ( $, .STERADIAN. ) SOLID_ANGLE_UNIT ( ) );
#99 = EDGE_LOOP ( 'NONE', ( #92, #31 ) ) ;
#100 = PRESENTATION_STYLE_ASSIGNMENT (( #12 ) ) ;
#101 = DIRECTION ( 'NONE',  ( -1.000000000000000000, 0.0000000000000000000, 0.0000000000000000000 ) ) ;
#102 =( GEOMETRIC_REPRESENTATION_CONTEXT ( 3 ) GLOBAL_UNCERTAINTY_ASSIGNED_CONTEXT ( ( #184 ) ) GLOBAL_UNIT_ASSIGNED_CONTEXT ( ( #190, #122, #84 ) ) REPRESENTATION_CONTEXT ( 'NONE', 'WORKASPACE' ) );
#103 = EDGE_LOOP ( 'NONE', ( #32, #39 ) ) ;
#104 = AXIS2_PLACEMENT_3D ( 'NONE', #52, #54, #169 ) ;
#105 = UNCERTAINTY_MEASURE_WITH_UNIT (LENGTH_MEASURE( 1.000000000000000100E-005 ), #177, 'distance_accuracy_value', 'NONE');
#106 = ORIENTED_EDGE ( 'NONE', *, *, #49, .T. ) ;
#107 = STYLED_ITEM ( 'NONE', ( #64 ), #178 ) ;
#108 =( GEOMETRIC_REPRESENTATION_CONTEXT ( 3 ) GLOBAL_UNCERTAINTY_ASSIGNED_CONTEXT ( ( #5 ) ) GLOBAL_UNIT_ASSIGNED_CONTEXT ( ( #188, #160, #98 ) ) REPRESENTATION_CONTEXT ( 'NONE', 'WORKASPACE' ) );
#109 = CARTESIAN_POINT ( 'NONE',  ( 0.0000000000000000000, 0.0000000000000000000, 0.0000000000000000000 ) ) ;
#110 = CLOSED_SHELL ( 'NONE', ( #62, #43, #145, #91 ) ) ;
#111 =( LENGTH_UNIT ( ) NAMED_UNIT ( * ) SI_UNIT ( .MILLI., .METRE. ) );
#112 =( NAMED_UNIT ( * ) PLANE_ANGLE_UNIT ( ) SI_UNIT ( $, .RADIAN. ) );
#113 = CARTESIAN_POINT ( 'NONE',  ( -4.000000000000000000, 0.0000000000000000000, 100000.0000000000000 ) ) ;
#114 = FILL_AREA_STYLE_COLOUR ( '', #44 ) ;
#115 = FACE_OUTER_BOUND ( 'NONE', #139, .T. ) ;
#116 =( GEOMETRIC_REPRESENTATION_CONTEXT ( 3 ) GLOBAL_UNCERTAINTY_ASSIGNED_CONTEXT ( ( #105 ) ) GLOBAL_UNIT_ASSIGNED_CONTEXT ( ( #177, #192, #70 ) ) REPRESENTATION_CONTEXT ( 'NONE', 'WORKASPACE' ) );
#117 = SURFACE_STYLE_FILL_AREA ( #158 ) ;
#118 = PRESENTATION_STYLE_ASSIGNMENT (( #138 ) ) ;
#119 = AXIS2_PLACEMENT_3D ( 'NONE', #109, #121, #41 ) ;
#120 = SURFACE_STYLE_FILL_AREA ( #125 ) ;
#121 = DIRECTION ( 'NONE',  ( 0.0000000000000000000, 0.0000000000000000000, 1.000000000000000000 ) ) ;
#122 =( NAMED_UNIT ( * ) PLANE_ANGLE_UNIT ( ) SI_UNIT ( $, .RADIAN. ) );
#123 = LINE ( 'NONE', #157, #198 ) ;
#124 = SURFACE_SIDE_STYLE ('',( #120 ) ) ;
#125 = FILL_AREA_STYLE ('',( #133 ) ) ;
#126 = PRESENTATION_LAYER_ASSIGNMENT (  '', '', ( #189 ) ) ;
#127 = DIRECTION ( 'NONE',  ( -0.0000000000000000000, -0.0000000000000000000, -1.000000000000000000 ) ) ;
#128 = ORIENTED_EDGE ( 'NONE', *, *, #78, .T. ) ;
#129 = EDGE_CURVE ( 'NONE', #59, #130, #29, .T. ) ;
#130 = VERTEX_POINT ( 'NONE', #97 ) ;
#131 =( GEOMETRIC_REPRESENTATION_CONTEXT ( 3 ) GLOBAL_UNCERTAINTY_ASSIGNED_CONTEXT ( ( #151 ) ) GLOBAL_UNIT_ASSIGNED_CONTEXT ( ( #171, #27, #175 ) ) REPRESENTATION_CONTEXT ( 'NONE', 'WORKASPACE' ) );
#132 = PRESENTATION_LAYER_ASSIGNMENT (  '', '', ( #144 ) ) ;
#133 = FILL_AREA_STYLE_COLOUR ( '', #200 ) ;
#134 = SURFACE_SIDE_STYLE ('',( #58 ) ) ;
#135 = DIRECTION ( 'NONE',  ( 1.000000000000000000, 0.0000000000000000000, -0.0000000000000000000 ) ) ;
#136 =( NAMED_UNIT ( * ) SI_UNIT ( $, .STERADIAN. ) SOLID_ANGLE_UNIT ( ) );
#137 = AXIS2_PLACEMENT_3D ( 'NONE', #155, #45, #135 ) ;
#138 = SURFACE_STYLE_USAGE ( .BOTH. , #74 ) ;
#139 = EDGE_LOOP ( 'NONE', ( #77, #196, #170, #150 ) ) ;
#140 = FILL_AREA_STYLE_COLOUR ( '', #162 ) ;
#141 = FILL_AREA_STYLE ('',( #114 ) ) ;
#142 = FACE_OUTER_BOUND ( 'NONE', #168, .T. ) ;
#143 = PRODUCT ( '5021480_KSTP1', '5021480_KSTP1', '', ( #40 ) ) ;
#144 = STYLED_ITEM ( 'NONE', ( #100 ), #62 ) ;
#145 = ADVANCED_FACE ( 'NONE', ( #17 ), #6, .T. ) ;
#146 = EDGE_CURVE ( 'NONE', #199, #35, #181, .T. ) ;
#147 = PRODUCT_DEFINITION_SHAPE ( 'NONE', 'NONE',  #148 ) ;
#148 = PRODUCT_DEFINITION ( 'UNKNOWN', '', #36, #53 ) ;
#149 = PRESENTATION_STYLE_ASSIGNMENT (( #69 ) ) ;
#150 = ORIENTED_EDGE ( 'NONE', *, *, #49, .F. ) ;
#151 = UNCERTAINTY_MEASURE_WITH_UNIT (LENGTH_MEASURE( 1.000000000000000100E-005 ), #171, 'distance_accuracy_value', 'NONE');
#152 = SURFACE_STYLE_FILL_AREA ( #141 ) ;
#153 = SURFACE_STYLE_FILL_AREA ( #10 ) ;
#154 = APPLICATION_CONTEXT ( 'automotive_design' ) ;
#155 = CARTESIAN_POINT ( 'NONE',  ( 0.0000000000000000000, 0.0000000000000000000, 100000.0000000000000 ) ) ;
#156 = APPLICATION_PROTOCOL_DEFINITION ( 'draft international standard', 'automotive_design', 1998, #4 ) ;
#157 = CARTESIAN_POINT ( 'NONE',  ( -4.000000000000000000, 0.0000000000000000000, 100000.0000000000000 ) ) ;
#158 = FILL_AREA_STYLE ('',( #195 ) ) ;
#159 = CARTESIAN_POINT ( 'NONE',  ( 4.000000000000000000, 4.898587196589412800E-016, 100000.0000000000000 ) ) ;
#160 =( NAMED_UNIT ( * ) PLANE_ANGLE_UNIT ( ) SI_UNIT ( $, .RADIAN. ) );
#161 = DIRECTION ( 'NONE',  ( -0.0000000000000000000, -0.0000000000000000000, -1.000000000000000000 ) ) ;
#162 = COLOUR_RGB ( '',0.7529411764705882200, 0.7529411764705882200, 0.7529411764705882200 ) ;
#163 = CARTESIAN_POINT ( 'NONE',  ( 0.0000000000000000000, 0.0000000000000000000, 0.0000000000000000000 ) ) ;
#164 =( GEOMETRIC_REPRESENTATION_CONTEXT ( 3 ) GLOBAL_UNCERTAINTY_ASSIGNED_CONTEXT ( ( #11 ) ) GLOBAL_UNIT_ASSIGNED_CONTEXT ( ( #173, #112, #136 ) ) REPRESENTATION_CONTEXT ( 'NONE', 'WORKASPACE' ) );
#165 = PRESENTATION_STYLE_ASSIGNMENT (( #46 ) ) ;
#166 = COLOUR_RGB ( '',0.7529411764705882200, 0.7529411764705882200, 0.7529411764705882200 ) ;
#167 = MECHANICAL_DESIGN_GEOMETRIC_PRESENTATION_REPRESENTATION (  '', ( #19 ), #164 ) ;
#168 = EDGE_LOOP ( 'NONE', ( #3, #76, #106, #128 ) ) ;
#169 = DIRECTION ( 'NONE',  ( 1.000000000000000000, 0.0000000000000000000, 0.0000000000000000000 ) ) ;
#170 = ORIENTED_EDGE ( 'NONE', *, *, #129, .T. ) ;
#171 =( LENGTH_UNIT ( ) NAMED_UNIT ( * ) SI_UNIT ( .MILLI., .METRE. ) );
#172 = DIRECTION ( 'NONE',  ( 1.000000000000000000, 0.0000000000000000000, 0.0000000000000000000 ) ) ;
#173 =( LENGTH_UNIT ( ) NAMED_UNIT ( * ) SI_UNIT ( .MILLI., .METRE. ) );
#174 = CARTESIAN_POINT ( 'NONE',  ( 0.0000000000000000000, 0.0000000000000000000, 0.0000000000000000000 ) ) ;
#175 =( NAMED_UNIT ( * ) SI_UNIT ( $, .STERADIAN. ) SOLID_ANGLE_UNIT ( ) );
#176 = SHAPE_DEFINITION_REPRESENTATION ( #147, #178 ) ;
#177 =( LENGTH_UNIT ( ) NAMED_UNIT ( * ) SI_UNIT ( .MILLI., .METRE. ) );
#178 = ADVANCED_BREP_SHAPE_REPRESENTATION ( '5021480_KSTP1', ( #15, #119 ), #102 ) ;
#179 = DIRECTION ( 'NONE',  ( 0.0000000000000000000, 0.0000000000000000000, 1.000000000000000000 ) ) ;
#180 = PRESENTATION_LAYER_ASSIGNMENT (  '', '', ( #19 ) ) ;
#181 = CIRCLE ( 'NONE', #186, 4.000000000000000000 ) ;
#182 = CIRCLE ( 'NONE', #90, 4.000000000000000000 ) ;
#183 = AXIS2_PLACEMENT_3D ( 'NONE', #42, #85, #101 ) ;
#184 = UNCERTAINTY_MEASURE_WITH_UNIT (LENGTH_MEASURE( 1.000000000000000100E-005 ), #190, 'distance_accuracy_value', 'NONE');
#185 = LINE ( 'NONE', #159, #14 ) ;
#186 = AXIS2_PLACEMENT_3D ( 'NONE', #95, #21, #172 ) ;
#187 = CARTESIAN_POINT ( 'NONE',  ( 4.000000000000000000, 4.898587196589412800E-016, 100000.0000000000000 ) ) ;
#188 =( LENGTH_UNIT ( ) NAMED_UNIT ( * ) SI_UNIT ( .MILLI., .METRE. ) );
#189 = STYLED_ITEM ( 'NONE', ( #79 ), #91 ) ;
#190 =( LENGTH_UNIT ( ) NAMED_UNIT ( * ) SI_UNIT ( .MILLI., .METRE. ) );
#191 = FILL_AREA_STYLE_COLOUR ( '', #67 ) ;
#192 =( NAMED_UNIT ( * ) PLANE_ANGLE_UNIT ( ) SI_UNIT ( $, .RADIAN. ) );
#193 = AXIS2_PLACEMENT_3D ( 'NONE', #87, #194, #55 ) ;
#194 = DIRECTION ( 'NONE',  ( -0.0000000000000000000, -0.0000000000000000000, -1.000000000000000000 ) ) ;
#195 = FILL_AREA_STYLE_COLOUR ( '', #2 ) ;
#196 = ORIENTED_EDGE ( 'NONE', *, *, #28, .T. ) ;
#197 = PRODUCT_RELATED_PRODUCT_CATEGORY ( 'part', '', ( #143 ) ) ;
#198 = VECTOR ( 'NONE', #127, 1000.000000000000000 ) ;
#199 = VERTEX_POINT ( 'NONE', #187 ) ;
#200 = COLOUR_RGB ( '',0.7529411764705882200, 0.7529411764705882200, 0.7529411764705882200 ) ;
ENDSEC;
END-ISO-10303-21;
