ISO-10303-21;
HEADER;
FILE_DESCRIPTION (( 'STEP AP214' ),
    '1' );
FILE_NAME ('5021502_KSTP1.stp',
    '2018-08-28T08:10:44',
    ( '' ),
    ( '' ),
    'SwSTEP 2.0',
    'SolidWorks 2016',
    '' );
FILE_SCHEMA (( 'AUTOMOTIVE_DESIGN' ));
ENDSEC;

DATA;
#1 = FILL_AREA_STYLE ('',( #49 ) ) ;
#2 = ADVANCED_FACE ( 'NONE', ( #190 ), #113, .T. ) ;
#3 = UNCERTAINTY_MEASURE_WITH_UNIT (LENGTH_MEASURE( 1.000000000000000100E-005 ), #61, 'distance_accuracy_value', 'NONE');
#4 = CARTESIAN_POINT ( 'NONE',  ( 0.0000000000000000000, 0.0000000000000000000, 50000.00000000000000 ) ) ;
#5 = COLOUR_RGB ( '',0.7529411764705882200, 0.7529411764705882200, 0.7529411764705882200 ) ;
#6 = EDGE_CURVE ( 'NONE', #53, #36, #110, .T. ) ;
#7 = DIRECTION ( 'NONE',  ( 0.0000000000000000000, 0.0000000000000000000, 1.000000000000000000 ) ) ;
#8 = APPLICATION_CONTEXT ( 'automotive_design' ) ;
#9 =( NAMED_UNIT ( * ) PLANE_ANGLE_UNIT ( ) SI_UNIT ( $, .RADIAN. ) );
#10 = PRESENTATION_STYLE_ASSIGNMENT (( #103 ) ) ;
#11 = EDGE_LOOP ( 'NONE', ( #86, #173 ) ) ;
#12 = PRESENTATION_LAYER_ASSIGNMENT (  '', '', ( #114 ) ) ;
#13 = VERTEX_POINT ( 'NONE', #20 ) ;
#14 = DIRECTION ( 'NONE',  ( -0.0000000000000000000, -0.0000000000000000000, -1.000000000000000000 ) ) ;
#15 = CIRCLE ( 'NONE', #119, 5.000000000000000000 ) ;
#16 = ORIENTED_EDGE ( 'NONE', *, *, #160, .T. ) ;
#17 =( NAMED_UNIT ( * ) PLANE_ANGLE_UNIT ( ) SI_UNIT ( $, .RADIAN. ) );
#18 = PRESENTATION_LAYER_ASSIGNMENT (  '', '', ( #185 ) ) ;
#19 = SURFACE_SIDE_STYLE ('',( #123 ) ) ;
#20 = CARTESIAN_POINT ( 'NONE',  ( 5.000000000000000000, 6.123233995736766300E-016, 50000.00000000000000 ) ) ;
#21 = VECTOR ( 'NONE', #199, 1000.000000000000000 ) ;
#22 = VERTEX_POINT ( 'NONE', #168 ) ;
#23 = AXIS2_PLACEMENT_3D ( 'NONE', #95, #14, #30 ) ;
#24 = DIRECTION ( 'NONE',  ( 1.000000000000000000, 0.0000000000000000000, 0.0000000000000000000 ) ) ;
#25 = APPLICATION_PROTOCOL_DEFINITION ( 'draft international standard', 'automotive_design', 1998, #8 ) ;
#26 = SURFACE_STYLE_USAGE ( .BOTH. , #54 ) ;
#27 = SURFACE_STYLE_USAGE ( .BOTH. , #33 ) ;
#28 = COLOUR_RGB ( '',0.7529411764705882200, 0.7529411764705882200, 0.7529411764705882200 ) ;
#29 = SURFACE_STYLE_FILL_AREA ( #184 ) ;
#30 = DIRECTION ( 'NONE',  ( -1.000000000000000000, 0.0000000000000000000, 0.0000000000000000000 ) ) ;
#31 = MECHANICAL_DESIGN_GEOMETRIC_PRESENTATION_REPRESENTATION (  '', ( #82 ), #121 ) ;
#32 =( LENGTH_UNIT ( ) NAMED_UNIT ( * ) SI_UNIT ( .MILLI., .METRE. ) );
#33 = SURFACE_SIDE_STYLE ('',( #46 ) ) ;
#34 = EDGE_LOOP ( 'NONE', ( #144, #127, #16, #131 ) ) ;
#35 = SURFACE_SIDE_STYLE ('',( #29 ) ) ;
#36 = VERTEX_POINT ( 'NONE', #65 ) ;
#37 = MECHANICAL_DESIGN_GEOMETRIC_PRESENTATION_REPRESENTATION (  '', ( #114 ), #67 ) ;
#38 = DIRECTION ( 'NONE',  ( 1.000000000000000000, 0.0000000000000000000, -0.0000000000000000000 ) ) ;
#39 = FILL_AREA_STYLE ('',( #178 ) ) ;
#40 = FILL_AREA_STYLE_COLOUR ( '', #106 ) ;
#41 = PRODUCT_DEFINITION ( 'UNKNOWN', '', #51, #44 ) ;
#42 = PLANE ( 'NONE',  #111 ) ;
#43 = UNCERTAINTY_MEASURE_WITH_UNIT (LENGTH_MEASURE( 1.000000000000000100E-005 ), #177, 'distance_accuracy_value', 'NONE');
#44 = PRODUCT_DEFINITION_CONTEXT ( 'detailed design', #8, 'design' ) ;
#45 = CARTESIAN_POINT ( 'NONE',  ( -5.000000000000000000, 0.0000000000000000000, 50000.00000000000000 ) ) ;
#46 = SURFACE_STYLE_FILL_AREA ( #124 ) ;
#47 =( NAMED_UNIT ( * ) PLANE_ANGLE_UNIT ( ) SI_UNIT ( $, .RADIAN. ) );
#48 =( GEOMETRIC_REPRESENTATION_CONTEXT ( 3 ) GLOBAL_UNCERTAINTY_ASSIGNED_CONTEXT ( ( #98 ) ) GLOBAL_UNIT_ASSIGNED_CONTEXT ( ( #179, #169, #79 ) ) REPRESENTATION_CONTEXT ( 'NONE', 'WORKASPACE' ) );
#49 = FILL_AREA_STYLE_COLOUR ( '', #28 ) ;
#50 = UNCERTAINTY_MEASURE_WITH_UNIT (LENGTH_MEASURE( 1.000000000000000100E-005 ), #146, 'distance_accuracy_value', 'NONE');
#51 = PRODUCT_DEFINITION_FORMATION_WITH_SPECIFIED_SOURCE ( 'ANY', '', #186, .NOT_KNOWN. ) ;
#52 = ORIENTED_EDGE ( 'NONE', *, *, #93, .F. ) ;
#53 = VERTEX_POINT ( 'NONE', #165 ) ;
#54 = SURFACE_SIDE_STYLE ('',( #69 ) ) ;
#55 = APPLICATION_PROTOCOL_DEFINITION ( 'draft international standard', 'automotive_design', 1998, #162 ) ;
#56 = DIRECTION ( 'NONE',  ( 0.0000000000000000000, 0.0000000000000000000, 1.000000000000000000 ) ) ;
#57 = FACE_OUTER_BOUND ( 'NONE', #11, .T. ) ;
#58 = MECHANICAL_DESIGN_GEOMETRIC_PRESENTATION_REPRESENTATION (  '', ( #189 ), #48 ) ;
#59 = PRESENTATION_STYLE_ASSIGNMENT (( #64 ) ) ;
#60 = CARTESIAN_POINT ( 'NONE',  ( 0.0000000000000000000, 0.0000000000000000000, 0.0000000000000000000 ) ) ;
#61 =( LENGTH_UNIT ( ) NAMED_UNIT ( * ) SI_UNIT ( .MILLI., .METRE. ) );
#62 = SURFACE_STYLE_USAGE ( .BOTH. , #35 ) ;
#63 = PRODUCT_RELATED_PRODUCT_CATEGORY ( 'part', '', ( #186 ) ) ;
#64 = SURFACE_STYLE_USAGE ( .BOTH. , #19 ) ;
#65 = CARTESIAN_POINT ( 'NONE',  ( -5.000000000000000000, 0.0000000000000000000, 0.0000000000000000000 ) ) ;
#66 = UNCERTAINTY_MEASURE_WITH_UNIT (LENGTH_MEASURE( 1.000000000000000100E-005 ), #183, 'distance_accuracy_value', 'NONE');
#67 =( GEOMETRIC_REPRESENTATION_CONTEXT ( 3 ) GLOBAL_UNCERTAINTY_ASSIGNED_CONTEXT ( ( #3 ) ) GLOBAL_UNIT_ASSIGNED_CONTEXT ( ( #61, #17, #164 ) ) REPRESENTATION_CONTEXT ( 'NONE', 'WORKASPACE' ) );
#68 =( LENGTH_UNIT ( ) NAMED_UNIT ( * ) SI_UNIT ( .MILLI., .METRE. ) );
#69 = SURFACE_STYLE_FILL_AREA ( #148 ) ;
#70 = EDGE_CURVE ( 'NONE', #36, #22, #153, .T. ) ;
#71 = PRODUCT_DEFINITION_SHAPE ( 'NONE', 'NONE',  #41 ) ;
#72 = DIRECTION ( 'NONE',  ( 1.000000000000000000, 0.0000000000000000000, -0.0000000000000000000 ) ) ;
#73 = FACE_OUTER_BOUND ( 'NONE', #34, .T. ) ;
#74 = SURFACE_SIDE_STYLE ('',( #172 ) ) ;
#75 = FILL_AREA_STYLE_COLOUR ( '', #187 ) ;
#76 = DIRECTION ( 'NONE',  ( 0.0000000000000000000, 0.0000000000000000000, 1.000000000000000000 ) ) ;
#77 = AXIS2_PLACEMENT_3D ( 'NONE', #78, #136, #125 ) ;
#78 = CARTESIAN_POINT ( 'NONE',  ( 0.0000000000000000000, 0.0000000000000000000, 0.0000000000000000000 ) ) ;
#79 =( NAMED_UNIT ( * ) SI_UNIT ( $, .STERADIAN. ) SOLID_ANGLE_UNIT ( ) );
#80 = CARTESIAN_POINT ( 'NONE',  ( 0.0000000000000000000, 0.0000000000000000000, 50000.00000000000000 ) ) ;
#81 = DIRECTION ( 'NONE',  ( 1.000000000000000000, 0.0000000000000000000, 0.0000000000000000000 ) ) ;
#82 = STYLED_ITEM ( 'NONE', ( #10 ), #140 ) ;
#83 = ADVANCED_FACE ( 'NONE', ( #73 ), #135, .T. ) ;
#84 =( NAMED_UNIT ( * ) SI_UNIT ( $, .STERADIAN. ) SOLID_ANGLE_UNIT ( ) );
#85 = MECHANICAL_DESIGN_GEOMETRIC_PRESENTATION_REPRESENTATION (  '', ( #128 ), #170 ) ;
#86 = ORIENTED_EDGE ( 'NONE', *, *, #70, .F. ) ;
#87 = AXIS2_PLACEMENT_3D ( 'NONE', #4, #7, #38 ) ;
#88 = CARTESIAN_POINT ( 'NONE',  ( 0.0000000000000000000, 0.0000000000000000000, 50000.00000000000000 ) ) ;
#89 = STYLED_ITEM ( 'NONE', ( #166 ), #156 ) ;
#90 = DIRECTION ( 'NONE',  ( 1.000000000000000000, 0.0000000000000000000, 0.0000000000000000000 ) ) ;
#91 = EDGE_LOOP ( 'NONE', ( #180, #96 ) ) ;
#92 =( NAMED_UNIT ( * ) SI_UNIT ( $, .STERADIAN. ) SOLID_ANGLE_UNIT ( ) );
#93 = EDGE_CURVE ( 'NONE', #53, #13, #200, .T. ) ;
#94 = DIRECTION ( 'NONE',  ( 0.0000000000000000000, 0.0000000000000000000, 1.000000000000000000 ) ) ;
#95 = CARTESIAN_POINT ( 'NONE',  ( 0.0000000000000000000, 0.0000000000000000000, 50000.00000000000000 ) ) ;
#96 = ORIENTED_EDGE ( 'NONE', *, *, #149, .T. ) ;
#97 = AXIS2_PLACEMENT_3D ( 'NONE', #80, #141, #182 ) ;
#98 = UNCERTAINTY_MEASURE_WITH_UNIT (LENGTH_MEASURE( 1.000000000000000100E-005 ), #179, 'distance_accuracy_value', 'NONE');
#99 =( NAMED_UNIT ( * ) PLANE_ANGLE_UNIT ( ) SI_UNIT ( $, .RADIAN. ) );
#100 = MANIFOLD_SOLID_BREP ( 'Boss-Extrude1', #139 ) ;
#101 =( GEOMETRIC_REPRESENTATION_CONTEXT ( 3 ) GLOBAL_UNCERTAINTY_ASSIGNED_CONTEXT ( ( #50 ) ) GLOBAL_UNIT_ASSIGNED_CONTEXT ( ( #146, #191, #150 ) ) REPRESENTATION_CONTEXT ( 'NONE', 'WORKASPACE' ) );
#102 = EDGE_LOOP ( 'NONE', ( #167, #52, #115, #163 ) ) ;
#103 = SURFACE_STYLE_USAGE ( .BOTH. , #120 ) ;
#104 =( GEOMETRIC_REPRESENTATION_CONTEXT ( 3 ) GLOBAL_UNCERTAINTY_ASSIGNED_CONTEXT ( ( #66 ) ) GLOBAL_UNIT_ASSIGNED_CONTEXT ( ( #183, #109, #155 ) ) REPRESENTATION_CONTEXT ( 'NONE', 'WORKASPACE' ) );
#105 = EDGE_CURVE ( 'NONE', #13, #22, #107, .T. ) ;
#106 = COLOUR_RGB ( '',0.7529411764705882200, 0.7529411764705882200, 0.7529411764705882200 ) ;
#107 = LINE ( 'NONE', #122, #21 ) ;
#108 = PRESENTATION_LAYER_ASSIGNMENT (  '', '', ( #189 ) ) ;
#109 =( NAMED_UNIT ( * ) PLANE_ANGLE_UNIT ( ) SI_UNIT ( $, .RADIAN. ) );
#110 = LINE ( 'NONE', #45, #193 ) ;
#111 = AXIS2_PLACEMENT_3D ( 'NONE', #161, #174, #72 ) ;
#112 = DIRECTION ( 'NONE',  ( -0.0000000000000000000, -0.0000000000000000000, -1.000000000000000000 ) ) ;
#113 = CYLINDRICAL_SURFACE ( 'NONE', #23, 5.000000000000000000 ) ;
#114 = STYLED_ITEM ( 'NONE', ( #188 ), #83 ) ;
#115 = ORIENTED_EDGE ( 'NONE', *, *, #6, .T. ) ;
#116 =( NAMED_UNIT ( * ) SI_UNIT ( $, .STERADIAN. ) SOLID_ANGLE_UNIT ( ) );
#117 = AXIS2_PLACEMENT_3D ( 'NONE', #60, #76, #175 ) ;
#118 = FILL_AREA_STYLE ('',( #75 ) ) ;
#119 = AXIS2_PLACEMENT_3D ( 'NONE', #88, #56, #24 ) ;
#120 = SURFACE_SIDE_STYLE ('',( #152 ) ) ;
#121 =( GEOMETRIC_REPRESENTATION_CONTEXT ( 3 ) GLOBAL_UNCERTAINTY_ASSIGNED_CONTEXT ( ( #43 ) ) GLOBAL_UNIT_ASSIGNED_CONTEXT ( ( #177, #9, #116 ) ) REPRESENTATION_CONTEXT ( 'NONE', 'WORKASPACE' ) );
#122 = CARTESIAN_POINT ( 'NONE',  ( 5.000000000000000000, 6.123233995736766300E-016, 50000.00000000000000 ) ) ;
#123 = SURFACE_STYLE_FILL_AREA ( #1 ) ;
#124 = FILL_AREA_STYLE ('',( #137 ) ) ;
#125 = DIRECTION ( 'NONE',  ( 1.000000000000000000, 0.0000000000000000000, 0.0000000000000000000 ) ) ;
#126 = CIRCLE ( 'NONE', #117, 5.000000000000000000 ) ;
#127 = ORIENTED_EDGE ( 'NONE', *, *, #105, .T. ) ;
#128 = STYLED_ITEM ( 'NONE', ( #181 ), #130 ) ;
#129 = SURFACE_STYLE_USAGE ( .BOTH. , #74 ) ;
#130 = ADVANCED_BREP_SHAPE_REPRESENTATION ( '5021502_KSTP1', ( #100, #134 ), #101 ) ;
#131 = ORIENTED_EDGE ( 'NONE', *, *, #6, .F. ) ;
#132 = MECHANICAL_DESIGN_GEOMETRIC_PRESENTATION_REPRESENTATION (  '', ( #185 ), #104 ) ;
#133 = PRESENTATION_LAYER_ASSIGNMENT (  '', '', ( #89 ) ) ;
#134 = AXIS2_PLACEMENT_3D ( 'NONE', #142, #159, #90 ) ;
#135 = CYLINDRICAL_SURFACE ( 'NONE', #97, 5.000000000000000000 ) ;
#136 = DIRECTION ( 'NONE',  ( 0.0000000000000000000, 0.0000000000000000000, 1.000000000000000000 ) ) ;
#137 = FILL_AREA_STYLE_COLOUR ( '', #195 ) ;
#138 = UNCERTAINTY_MEASURE_WITH_UNIT (LENGTH_MEASURE( 1.000000000000000100E-005 ), #32, 'distance_accuracy_value', 'NONE');
#139 = CLOSED_SHELL ( 'NONE', ( #83, #2, #156, #140 ) ) ;
#140 = ADVANCED_FACE ( 'NONE', ( #57 ), #42, .F. ) ;
#141 = DIRECTION ( 'NONE',  ( -0.0000000000000000000, -0.0000000000000000000, -1.000000000000000000 ) ) ;
#142 = CARTESIAN_POINT ( 'NONE',  ( 0.0000000000000000000, 0.0000000000000000000, 0.0000000000000000000 ) ) ;
#143 = PLANE ( 'NONE',  #87 ) ;
#144 = ORIENTED_EDGE ( 'NONE', *, *, #149, .F. ) ;
#145 = COLOUR_RGB ( '',0.7529411764705882200, 0.7529411764705882200, 0.7529411764705882200 ) ;
#146 =( LENGTH_UNIT ( ) NAMED_UNIT ( * ) SI_UNIT ( .MILLI., .METRE. ) );
#147 = UNCERTAINTY_MEASURE_WITH_UNIT (LENGTH_MEASURE( 1.000000000000000100E-005 ), #68, 'distance_accuracy_value', 'NONE');
#148 = FILL_AREA_STYLE ('',( #40 ) ) ;
#149 = EDGE_CURVE ( 'NONE', #13, #53, #15, .T. ) ;
#150 =( NAMED_UNIT ( * ) SI_UNIT ( $, .STERADIAN. ) SOLID_ANGLE_UNIT ( ) );
#151 =( GEOMETRIC_REPRESENTATION_CONTEXT ( 3 ) GLOBAL_UNCERTAINTY_ASSIGNED_CONTEXT ( ( #147 ) ) GLOBAL_UNIT_ASSIGNED_CONTEXT ( ( #68, #99, #84 ) ) REPRESENTATION_CONTEXT ( 'NONE', 'WORKASPACE' ) );
#152 = SURFACE_STYLE_FILL_AREA ( #39 ) ;
#153 = CIRCLE ( 'NONE', #77, 5.000000000000000000 ) ;
#154 = CARTESIAN_POINT ( 'NONE',  ( 0.0000000000000000000, 0.0000000000000000000, 50000.00000000000000 ) ) ;
#155 =( NAMED_UNIT ( * ) SI_UNIT ( $, .STERADIAN. ) SOLID_ANGLE_UNIT ( ) );
#156 = ADVANCED_FACE ( 'NONE', ( #171 ), #143, .T. ) ;
#157 = MECHANICAL_DESIGN_GEOMETRIC_PRESENTATION_REPRESENTATION (  '', ( #89 ), #151 ) ;
#158 = PRESENTATION_STYLE_ASSIGNMENT (( #27 ) ) ;
#159 = DIRECTION ( 'NONE',  ( 0.0000000000000000000, 0.0000000000000000000, 1.000000000000000000 ) ) ;
#160 = EDGE_CURVE ( 'NONE', #22, #36, #126, .T. ) ;
#161 = CARTESIAN_POINT ( 'NONE',  ( 0.0000000000000000000, 0.0000000000000000000, 0.0000000000000000000 ) ) ;
#162 = APPLICATION_CONTEXT ( 'automotive_design' ) ;
#163 = ORIENTED_EDGE ( 'NONE', *, *, #70, .T. ) ;
#164 =( NAMED_UNIT ( * ) SI_UNIT ( $, .STERADIAN. ) SOLID_ANGLE_UNIT ( ) );
#165 = CARTESIAN_POINT ( 'NONE',  ( -5.000000000000000000, 0.0000000000000000000, 50000.00000000000000 ) ) ;
#166 = PRESENTATION_STYLE_ASSIGNMENT (( #129 ) ) ;
#167 = ORIENTED_EDGE ( 'NONE', *, *, #105, .F. ) ;
#168 = CARTESIAN_POINT ( 'NONE',  ( 5.000000000000000000, 6.123233995736766300E-016, 0.0000000000000000000 ) ) ;
#169 =( NAMED_UNIT ( * ) PLANE_ANGLE_UNIT ( ) SI_UNIT ( $, .RADIAN. ) );
#170 =( GEOMETRIC_REPRESENTATION_CONTEXT ( 3 ) GLOBAL_UNCERTAINTY_ASSIGNED_CONTEXT ( ( #138 ) ) GLOBAL_UNIT_ASSIGNED_CONTEXT ( ( #32, #47, #92 ) ) REPRESENTATION_CONTEXT ( 'NONE', 'WORKASPACE' ) );
#171 = FACE_OUTER_BOUND ( 'NONE', #91, .T. ) ;
#172 = SURFACE_STYLE_FILL_AREA ( #118 ) ;
#173 = ORIENTED_EDGE ( 'NONE', *, *, #160, .F. ) ;
#174 = DIRECTION ( 'NONE',  ( 0.0000000000000000000, 0.0000000000000000000, 1.000000000000000000 ) ) ;
#175 = DIRECTION ( 'NONE',  ( 1.000000000000000000, 0.0000000000000000000, 0.0000000000000000000 ) ) ;
#176 = PRESENTATION_LAYER_ASSIGNMENT (  '', '', ( #128 ) ) ;
#177 =( LENGTH_UNIT ( ) NAMED_UNIT ( * ) SI_UNIT ( .MILLI., .METRE. ) );
#178 = FILL_AREA_STYLE_COLOUR ( '', #5 ) ;
#179 =( LENGTH_UNIT ( ) NAMED_UNIT ( * ) SI_UNIT ( .MILLI., .METRE. ) );
#180 = ORIENTED_EDGE ( 'NONE', *, *, #93, .T. ) ;
#181 = PRESENTATION_STYLE_ASSIGNMENT (( #26 ) ) ;
#182 = DIRECTION ( 'NONE',  ( -1.000000000000000000, 0.0000000000000000000, 0.0000000000000000000 ) ) ;
#183 =( LENGTH_UNIT ( ) NAMED_UNIT ( * ) SI_UNIT ( .MILLI., .METRE. ) );
#184 = FILL_AREA_STYLE ('',( #198 ) ) ;
#185 = STYLED_ITEM ( 'NONE', ( #59 ), #2 ) ;
#186 = PRODUCT ( '5021502_KSTP1', '5021502_KSTP1', '', ( #194 ) ) ;
#187 = COLOUR_RGB ( '',0.7529411764705882200, 0.7529411764705882200, 0.7529411764705882200 ) ;
#188 = PRESENTATION_STYLE_ASSIGNMENT (( #62 ) ) ;
#189 = STYLED_ITEM ( 'NONE', ( #158 ), #100 ) ;
#190 = FACE_OUTER_BOUND ( 'NONE', #102, .T. ) ;
#191 =( NAMED_UNIT ( * ) PLANE_ANGLE_UNIT ( ) SI_UNIT ( $, .RADIAN. ) );
#192 = SHAPE_DEFINITION_REPRESENTATION ( #71, #130 ) ;
#193 = VECTOR ( 'NONE', #112, 1000.000000000000000 ) ;
#194 = PRODUCT_CONTEXT ( 'NONE', #162, 'mechanical' ) ;
#195 = COLOUR_RGB ( '',0.7529411764705882200, 0.7529411764705882200, 0.7529411764705882200 ) ;
#196 = AXIS2_PLACEMENT_3D ( 'NONE', #154, #94, #81 ) ;
#197 = PRESENTATION_LAYER_ASSIGNMENT (  '', '', ( #82 ) ) ;
#198 = FILL_AREA_STYLE_COLOUR ( '', #145 ) ;
#199 = DIRECTION ( 'NONE',  ( -0.0000000000000000000, -0.0000000000000000000, -1.000000000000000000 ) ) ;
#200 = CIRCLE ( 'NONE', #196, 5.000000000000000000 ) ;
ENDSEC;
END-ISO-10303-21;
