ISO-10303-21;
HEADER;
FILE_DESCRIPTION(('CoCreate Modeling STEP Export'),'2;1');
FILE_NAME('5021652.stp','2019-04-23T10:20:29',(''),(''),
'CoCreate Modeling STEP processor for AP214 (Solid Model)',
'CoCreate Modeling 16.00D  29-May-2009 (C) Parametric Technology GmbH',
'');
FILE_SCHEMA(('AUTOMOTIVE_DESIGN { 1 0 10303 214 1 1 1 1 }'));
ENDSEC;
DATA;
#10=CARTESIAN_POINT('',(0.,0.,0.));
#20=DIRECTION('',(0.,0.,1.));
#30=DIRECTION('',(1.,0.,-0.));
#40=AXIS2_PLACEMENT_3D('',#10,#20,#30);
#50=PLANE('',#40);
#60=CARTESIAN_POINT('',(0.,0.,0.));
#70=DIRECTION('',(0.,0.,1.));
#80=DIRECTION('',(1.,0.,0.));
#90=AXIS2_PLACEMENT_3D('',#60,#70,#80);
#100=CIRCLE('',#90,4.5);
#110=CARTESIAN_POINT('',(4.5,0.,0.));
#120=VERTEX_POINT('',#110);
#130=CARTESIAN_POINT('',(-4.5,5.51091059616309E-16,0.));
#140=VERTEX_POINT('',#130);
#150=EDGE_CURVE('',#120,#140,#100,.T.);
#160=ORIENTED_EDGE('',*,*,#150,.F.);
#170=EDGE_CURVE('',#140,#120,#100,.T.);
#180=ORIENTED_EDGE('',*,*,#170,.F.);
#190=EDGE_LOOP('',(#180,#160));
#200=FACE_OUTER_BOUND('',#190,.T.);
#210=ADVANCED_FACE('',(#200),#50,.F.);
#220=CARTESIAN_POINT('',(0.,0.,3000.));
#230=DIRECTION('',(0.,0.,1.));
#240=DIRECTION('',(1.,0.,-0.));
#250=AXIS2_PLACEMENT_3D('',#220,#230,#240);
#260=PLANE('',#250);
#270=CARTESIAN_POINT('',(0.,0.,3000.));
#280=DIRECTION('',(0.,0.,1.));
#290=DIRECTION('',(1.,0.,0.));
#300=AXIS2_PLACEMENT_3D('',#270,#280,#290);
#310=CIRCLE('',#300,4.5);
#320=CARTESIAN_POINT('',(4.5,0.,3000.));
#330=VERTEX_POINT('',#320);
#340=CARTESIAN_POINT('',(-4.5,5.51091059616309E-16,3000.));
#350=VERTEX_POINT('',#340);
#360=EDGE_CURVE('',#330,#350,#310,.T.);
#370=ORIENTED_EDGE('',*,*,#360,.T.);
#380=EDGE_CURVE('',#350,#330,#310,.T.);
#390=ORIENTED_EDGE('',*,*,#380,.T.);
#400=EDGE_LOOP('',(#390,#370));
#410=FACE_OUTER_BOUND('',#400,.T.);
#420=ADVANCED_FACE('',(#410),#260,.T.);
#430=CARTESIAN_POINT('',(0.,0.,0.));
#440=DIRECTION('',(0.,0.,1.));
#450=DIRECTION('',(1.,0.,0.));
#460=AXIS2_PLACEMENT_3D('',#430,#440,#450);
#470=CYLINDRICAL_SURFACE('',#460,4.5);
#480=CARTESIAN_POINT('',(4.5,0.,0.));
#490=DIRECTION('',(0.,0.,1.));
#500=VECTOR('',#490,1.);
#510=LINE('',#480,#500);
#520=EDGE_CURVE('',#120,#330,#510,.T.);
#530=ORIENTED_EDGE('',*,*,#520,.T.);
#540=ORIENTED_EDGE('',*,*,#170,.T.);
#550=CARTESIAN_POINT('',(-4.5,5.51091059616309E-16,0.));
#560=DIRECTION('',(0.,0.,1.));
#570=VECTOR('',#560,1.);
#580=LINE('',#550,#570);
#590=EDGE_CURVE('',#140,#350,#580,.T.);
#600=ORIENTED_EDGE('',*,*,#590,.F.);
#610=ORIENTED_EDGE('',*,*,#380,.F.);
#620=EDGE_LOOP('',(#610,#600,#540,#530));
#630=FACE_OUTER_BOUND('',#620,.T.);
#640=ADVANCED_FACE('',(#630),#470,.T.);
#650=ORIENTED_EDGE('',*,*,#150,.T.);
#660=ORIENTED_EDGE('',*,*,#520,.F.);
#670=ORIENTED_EDGE('',*,*,#360,.F.);
#680=ORIENTED_EDGE('',*,*,#590,.T.);
#690=EDGE_LOOP('',(#680,#670,#660,#650));
#700=FACE_OUTER_BOUND('',#690,.T.);
#710=ADVANCED_FACE('',(#700),#470,.T.);
#720=CLOSED_SHELL('',(#640,#710,#420,#210));
#730=MANIFOLD_SOLID_BREP('',#720);
#740=CARTESIAN_POINT('',(0.,0.,0.));
#750=DIRECTION('',(0.,0.,1.));
#760=DIRECTION('',(1.,0.,0.));
#770=AXIS2_PLACEMENT_3D('',#740,#750,#760);
#780=APPLICATION_CONTEXT(' ');
#790=APPLICATION_PROTOCOL_DEFINITION(' ','automotive_design',1998,#780);
#800=PRODUCT_CONTEXT('',#780,'mechanical');
#810=PRODUCT_DEFINITION_CONTEXT('part definition',#780,'design');
#820=PRODUCT('1','1','',(#800));
#830=PRODUCT_RELATED_PRODUCT_CATEGORY('part',' ',(#820));
#840=PRODUCT_DEFINITION_FORMATION_WITH_SPECIFIED_SOURCE('','',#820,
.BOUGHT.);
#850=PRODUCT_DEFINITION('',' ',#840,#810);
#860=PRODUCT_DEFINITION_SHAPE('','',#850);
#870=DIMENSIONAL_EXPONENTS(1.,0.,0.,0.,0.,0.,0.);
#880=DIMENSIONAL_EXPONENTS(0.,0.,0.,0.,0.,0.,0.);
#890=DIMENSIONAL_EXPONENTS(0.,0.,0.,0.,0.,0.,0.);
#900=(LENGTH_UNIT() NAMED_UNIT(*) SI_UNIT(.MILLI.,.METRE.));
#910=(NAMED_UNIT(*) PLANE_ANGLE_UNIT() SI_UNIT($,.RADIAN.));
#920=(NAMED_UNIT(*) SI_UNIT($,.STERADIAN.) SOLID_ANGLE_UNIT());
#930=(GEOMETRIC_REPRESENTATION_CONTEXT(3) 
GLOBAL_UNCERTAINTY_ASSIGNED_CONTEXT((#940)) GLOBAL_UNIT_ASSIGNED_CONTEXT
((#900,#910,#920)) REPRESENTATION_CONTEXT('',''));
#940=UNCERTAINTY_MEASURE_WITH_UNIT(LENGTH_MEASURE(1.E-6),#900,
'distance_accuracy_value','maximum gap value');
#950=ADVANCED_BREP_SHAPE_REPRESENTATION('',(#770,#730),#930);
#960=SHAPE_DEFINITION_REPRESENTATION(#860,#950);
#970=COLOUR_RGB('',0.600000023841858,0.600000023841858,0.600000023841858
);
#980=FILL_AREA_STYLE_COLOUR('',#970);
#990=FILL_AREA_STYLE('',(#980));
#1000=SURFACE_STYLE_FILL_AREA(#990);
#1010=SURFACE_SIDE_STYLE('',(#1000));
#1020=SURFACE_STYLE_USAGE(.BOTH.,#1010);
#1030=PRESENTATION_STYLE_ASSIGNMENT((#1020));
#1040=STYLED_ITEM('',(#1030),#730);
#1050=DRAUGHTING_MODEL('',(#1040),#930);
ENDSEC;
END-ISO-10303-21;
