ISO-10303-21;
HEADER;
FILE_DESCRIPTION(('CoCreate Modeling STEP Export'),'2;1');
FILE_NAME('5334934.stp','2019-04-23T12:34:45',(''),(''),
'CoCreate Modeling STEP processor for AP214 (Solid Model)',
'CoCreate Modeling 16.00D  29-May-2009 (C) Parametric Technology GmbH',
'');
FILE_SCHEMA(('AUTOMOTIVE_DESIGN { 1 0 10303 214 1 1 1 1 }'));
ENDSEC;
DATA;
#10=CARTESIAN_POINT('',(0.,0.,0.));
#20=DIRECTION('',(0.,0.,1.));
#30=DIRECTION('',(1.,0.,0.));
#40=AXIS2_PLACEMENT_3D('',#10,#20,#30);
#50=PLANE('',#40);
#60=CARTESIAN_POINT('',(80.,4.,0.));
#70=DIRECTION('',(0.,-1.,0.));
#80=VECTOR('',#70,1.);
#90=LINE('',#60,#80);
#100=CARTESIAN_POINT('',(80.,4.,0.));
#110=VERTEX_POINT('',#100);
#120=CARTESIAN_POINT('',(80.,0.,0.));
#130=VERTEX_POINT('',#120);
#140=EDGE_CURVE('',#110,#130,#90,.T.);
#150=ORIENTED_EDGE('',*,*,#140,.T.);
#160=CARTESIAN_POINT('',(30.,4.,0.));
#170=DIRECTION('',(1.,0.,0.));
#180=VECTOR('',#170,1.);
#190=LINE('',#160,#180);
#200=CARTESIAN_POINT('',(32.,4.,0.));
#210=VERTEX_POINT('',#200);
#220=EDGE_CURVE('',#210,#110,#190,.T.);
#230=ORIENTED_EDGE('',*,*,#220,.T.);
#240=CARTESIAN_POINT('',(32.,6.,0.));
#250=DIRECTION('',(0.,0.,1.));
#260=DIRECTION('',(1.,0.,0.));
#270=AXIS2_PLACEMENT_3D('',#240,#250,#260);
#280=CIRCLE('',#270,2.);
#290=CARTESIAN_POINT('',(30.,6.,0.));
#300=VERTEX_POINT('',#290);
#310=EDGE_CURVE('',#300,#210,#280,.T.);
#320=ORIENTED_EDGE('',*,*,#310,.T.);
#330=CARTESIAN_POINT('',(30.,25.,0.));
#340=DIRECTION('',(0.,-1.,0.));
#350=VECTOR('',#340,1.);
#360=LINE('',#330,#350);
#370=CARTESIAN_POINT('',(30.,19.,0.));
#380=VERTEX_POINT('',#370);
#390=EDGE_CURVE('',#380,#300,#360,.T.);
#400=ORIENTED_EDGE('',*,*,#390,.T.);
#410=CARTESIAN_POINT('',(24.,19.,0.));
#420=DIRECTION('',(0.,0.,1.));
#430=DIRECTION('',(1.,0.,0.));
#440=AXIS2_PLACEMENT_3D('',#410,#420,#430);
#450=CIRCLE('',#440,6.);
#460=CARTESIAN_POINT('',(24.,25.,0.));
#470=VERTEX_POINT('',#460);
#480=EDGE_CURVE('',#380,#470,#450,.T.);
#490=ORIENTED_EDGE('',*,*,#480,.F.);
#500=CARTESIAN_POINT('',(0.,25.,0.));
#510=DIRECTION('',(1.,0.,0.));
#520=VECTOR('',#510,1.);
#530=LINE('',#500,#520);
#540=CARTESIAN_POINT('',(0.,25.,0.));
#550=VERTEX_POINT('',#540);
#560=EDGE_CURVE('',#550,#470,#530,.T.);
#570=ORIENTED_EDGE('',*,*,#560,.T.);
#580=CARTESIAN_POINT('',(0.,21.,0.));
#590=DIRECTION('',(0.,1.,0.));
#600=VECTOR('',#590,1.);
#610=LINE('',#580,#600);
#620=CARTESIAN_POINT('',(0.,21.,0.));
#630=VERTEX_POINT('',#620);
#640=EDGE_CURVE('',#630,#550,#610,.T.);
#650=ORIENTED_EDGE('',*,*,#640,.T.);
#660=CARTESIAN_POINT('',(26.,21.,0.));
#670=DIRECTION('',(-1.,0.,0.));
#680=VECTOR('',#670,1.);
#690=LINE('',#660,#680);
#700=CARTESIAN_POINT('',(24.,21.,0.));
#710=VERTEX_POINT('',#700);
#720=EDGE_CURVE('',#710,#630,#690,.T.);
#730=ORIENTED_EDGE('',*,*,#720,.T.);
#740=CARTESIAN_POINT('',(24.,19.,0.));
#750=DIRECTION('',(0.,0.,1.));
#760=DIRECTION('',(1.,0.,0.));
#770=AXIS2_PLACEMENT_3D('',#740,#750,#760);
#780=CIRCLE('',#770,2.);
#790=CARTESIAN_POINT('',(26.,19.,0.));
#800=VERTEX_POINT('',#790);
#810=EDGE_CURVE('',#800,#710,#780,.T.);
#820=ORIENTED_EDGE('',*,*,#810,.T.);
#830=CARTESIAN_POINT('',(26.,0.,0.));
#840=DIRECTION('',(0.,1.,0.));
#850=VECTOR('',#840,1.);
#860=LINE('',#830,#850);
#870=CARTESIAN_POINT('',(26.,6.,0.));
#880=VERTEX_POINT('',#870);
#890=EDGE_CURVE('',#880,#800,#860,.T.);
#900=ORIENTED_EDGE('',*,*,#890,.T.);
#910=CARTESIAN_POINT('',(32.,6.,0.));
#920=DIRECTION('',(0.,0.,1.));
#930=DIRECTION('',(1.,0.,0.));
#940=AXIS2_PLACEMENT_3D('',#910,#920,#930);
#950=CIRCLE('',#940,6.);
#960=CARTESIAN_POINT('',(32.,0.,0.));
#970=VERTEX_POINT('',#960);
#980=EDGE_CURVE('',#880,#970,#950,.T.);
#990=ORIENTED_EDGE('',*,*,#980,.F.);
#1000=CARTESIAN_POINT('',(80.,0.,0.));
#1010=DIRECTION('',(-1.,0.,0.));
#1020=VECTOR('',#1010,1.);
#1030=LINE('',#1000,#1020);
#1040=EDGE_CURVE('',#130,#970,#1030,.T.);
#1050=ORIENTED_EDGE('',*,*,#1040,.T.);
#1060=EDGE_LOOP('',(#1050,#990,#900,#820,#730,#650,#570,#490,#400,#320,
#230,#150));
#1070=FACE_OUTER_BOUND('',#1060,.T.);
#1080=ADVANCED_FACE('',(#1070),#50,.F.);
#1090=CARTESIAN_POINT('',(0.,0.,25.));
#1100=DIRECTION('',(0.,0.,1.));
#1110=DIRECTION('',(1.,0.,0.));
#1120=AXIS2_PLACEMENT_3D('',#1090,#1100,#1110);
#1130=PLANE('',#1120);
#1140=CARTESIAN_POINT('',(80.,0.,25.));
#1150=DIRECTION('',(-1.,0.,0.));
#1160=VECTOR('',#1150,1.);
#1170=LINE('',#1140,#1160);
#1180=CARTESIAN_POINT('',(80.,0.,25.));
#1190=VERTEX_POINT('',#1180);
#1200=CARTESIAN_POINT('',(32.,0.,25.));
#1210=VERTEX_POINT('',#1200);
#1220=EDGE_CURVE('',#1190,#1210,#1170,.T.);
#1230=ORIENTED_EDGE('',*,*,#1220,.F.);
#1240=CARTESIAN_POINT('',(32.,6.,25.));
#1250=DIRECTION('',(0.,0.,1.));
#1260=DIRECTION('',(1.,0.,0.));
#1270=AXIS2_PLACEMENT_3D('',#1240,#1250,#1260);
#1280=CIRCLE('',#1270,6.);
#1290=CARTESIAN_POINT('',(26.,6.,25.));
#1300=VERTEX_POINT('',#1290);
#1310=EDGE_CURVE('',#1300,#1210,#1280,.T.);
#1320=ORIENTED_EDGE('',*,*,#1310,.T.);
#1330=CARTESIAN_POINT('',(26.,0.,25.));
#1340=DIRECTION('',(0.,1.,0.));
#1350=VECTOR('',#1340,1.);
#1360=LINE('',#1330,#1350);
#1370=CARTESIAN_POINT('',(26.,19.,25.));
#1380=VERTEX_POINT('',#1370);
#1390=EDGE_CURVE('',#1300,#1380,#1360,.T.);
#1400=ORIENTED_EDGE('',*,*,#1390,.F.);
#1410=CARTESIAN_POINT('',(24.,19.,25.));
#1420=DIRECTION('',(0.,0.,1.));
#1430=DIRECTION('',(1.,0.,0.));
#1440=AXIS2_PLACEMENT_3D('',#1410,#1420,#1430);
#1450=CIRCLE('',#1440,2.);
#1460=CARTESIAN_POINT('',(24.,21.,25.));
#1470=VERTEX_POINT('',#1460);
#1480=EDGE_CURVE('',#1380,#1470,#1450,.T.);
#1490=ORIENTED_EDGE('',*,*,#1480,.F.);
#1500=CARTESIAN_POINT('',(26.,21.,25.));
#1510=DIRECTION('',(-1.,0.,0.));
#1520=VECTOR('',#1510,1.);
#1530=LINE('',#1500,#1520);
#1540=CARTESIAN_POINT('',(0.,21.,25.));
#1550=VERTEX_POINT('',#1540);
#1560=EDGE_CURVE('',#1470,#1550,#1530,.T.);
#1570=ORIENTED_EDGE('',*,*,#1560,.F.);
#1580=CARTESIAN_POINT('',(0.,21.,25.));
#1590=DIRECTION('',(0.,1.,0.));
#1600=VECTOR('',#1590,1.);
#1610=LINE('',#1580,#1600);
#1620=CARTESIAN_POINT('',(0.,25.,25.));
#1630=VERTEX_POINT('',#1620);
#1640=EDGE_CURVE('',#1550,#1630,#1610,.T.);
#1650=ORIENTED_EDGE('',*,*,#1640,.F.);
#1660=CARTESIAN_POINT('',(0.,25.,25.));
#1670=DIRECTION('',(1.,0.,0.));
#1680=VECTOR('',#1670,1.);
#1690=LINE('',#1660,#1680);
#1700=CARTESIAN_POINT('',(24.,25.,25.));
#1710=VERTEX_POINT('',#1700);
#1720=EDGE_CURVE('',#1630,#1710,#1690,.T.);
#1730=ORIENTED_EDGE('',*,*,#1720,.F.);
#1740=CARTESIAN_POINT('',(24.,19.,25.));
#1750=DIRECTION('',(0.,0.,1.));
#1760=DIRECTION('',(1.,0.,0.));
#1770=AXIS2_PLACEMENT_3D('',#1740,#1750,#1760);
#1780=CIRCLE('',#1770,6.);
#1790=CARTESIAN_POINT('',(30.,19.,25.));
#1800=VERTEX_POINT('',#1790);
#1810=EDGE_CURVE('',#1800,#1710,#1780,.T.);
#1820=ORIENTED_EDGE('',*,*,#1810,.T.);
#1830=CARTESIAN_POINT('',(30.,25.,25.));
#1840=DIRECTION('',(0.,-1.,0.));
#1850=VECTOR('',#1840,1.);
#1860=LINE('',#1830,#1850);
#1870=CARTESIAN_POINT('',(30.,6.,25.));
#1880=VERTEX_POINT('',#1870);
#1890=EDGE_CURVE('',#1800,#1880,#1860,.T.);
#1900=ORIENTED_EDGE('',*,*,#1890,.F.);
#1910=CARTESIAN_POINT('',(32.,6.,25.));
#1920=DIRECTION('',(0.,0.,1.));
#1930=DIRECTION('',(1.,0.,0.));
#1940=AXIS2_PLACEMENT_3D('',#1910,#1920,#1930);
#1950=CIRCLE('',#1940,2.);
#1960=CARTESIAN_POINT('',(32.,4.,25.));
#1970=VERTEX_POINT('',#1960);
#1980=EDGE_CURVE('',#1880,#1970,#1950,.T.);
#1990=ORIENTED_EDGE('',*,*,#1980,.F.);
#2000=CARTESIAN_POINT('',(30.,4.,25.));
#2010=DIRECTION('',(1.,0.,0.));
#2020=VECTOR('',#2010,1.);
#2030=LINE('',#2000,#2020);
#2040=CARTESIAN_POINT('',(80.,4.,25.));
#2050=VERTEX_POINT('',#2040);
#2060=EDGE_CURVE('',#1970,#2050,#2030,.T.);
#2070=ORIENTED_EDGE('',*,*,#2060,.F.);
#2080=CARTESIAN_POINT('',(80.,4.,25.));
#2090=DIRECTION('',(0.,-1.,0.));
#2100=VECTOR('',#2090,1.);
#2110=LINE('',#2080,#2100);
#2120=EDGE_CURVE('',#2050,#1190,#2110,.T.);
#2130=ORIENTED_EDGE('',*,*,#2120,.F.);
#2140=EDGE_LOOP('',(#2130,#2070,#1990,#1900,#1820,#1730,#1650,#1570,
#1490,#1400,#1320,#1230));
#2150=FACE_OUTER_BOUND('',#2140,.T.);
#2160=ADVANCED_FACE('',(#2150),#1130,.T.);
#2170=CARTESIAN_POINT('',(0.,21.,0.));
#2180=DIRECTION('',(-1.,0.,0.));
#2190=DIRECTION('',(0.,1.,0.));
#2200=AXIS2_PLACEMENT_3D('',#2170,#2180,#2190);
#2210=PLANE('',#2200);
#2220=CARTESIAN_POINT('',(0.,25.,0.));
#2230=DIRECTION('',(0.,0.,1.));
#2240=VECTOR('',#2230,1.);
#2250=LINE('',#2220,#2240);
#2260=EDGE_CURVE('',#550,#1630,#2250,.T.);
#2270=ORIENTED_EDGE('',*,*,#2260,.F.);
#2280=ORIENTED_EDGE('',*,*,#1640,.T.);
#2290=CARTESIAN_POINT('',(0.,21.,0.));
#2300=DIRECTION('',(0.,0.,1.));
#2310=VECTOR('',#2300,1.);
#2320=LINE('',#2290,#2310);
#2330=EDGE_CURVE('',#630,#1550,#2320,.T.);
#2340=ORIENTED_EDGE('',*,*,#2330,.T.);
#2350=ORIENTED_EDGE('',*,*,#640,.F.);
#2360=EDGE_LOOP('',(#2350,#2340,#2280,#2270));
#2370=FACE_OUTER_BOUND('',#2360,.T.);
#2380=ADVANCED_FACE('',(#2370),#2210,.T.);
#2390=CARTESIAN_POINT('',(26.,21.,0.));
#2400=DIRECTION('',(-0.,-1.,-0.));
#2410=DIRECTION('',(-1.,0.,0.));
#2420=AXIS2_PLACEMENT_3D('',#2390,#2400,#2410);
#2430=PLANE('',#2420);
#2440=ORIENTED_EDGE('',*,*,#720,.F.);
#2450=ORIENTED_EDGE('',*,*,#2330,.F.);
#2460=ORIENTED_EDGE('',*,*,#1560,.T.);
#2470=CARTESIAN_POINT('',(24.,21.,0.));
#2480=DIRECTION('',(0.,0.,1.));
#2490=VECTOR('',#2480,1.);
#2500=LINE('',#2470,#2490);
#2510=EDGE_CURVE('',#710,#1470,#2500,.T.);
#2520=ORIENTED_EDGE('',*,*,#2510,.T.);
#2530=EDGE_LOOP('',(#2520,#2460,#2450,#2440));
#2540=FACE_OUTER_BOUND('',#2530,.T.);
#2550=CARTESIAN_POINT('',(15.,21.,12.5));
#2560=DIRECTION('',(0.,1.,0.));
#2570=DIRECTION('',(1.,0.,0.));
#2580=AXIS2_PLACEMENT_3D('',#2550,#2560,#2570);
#2590=CIRCLE('',#2580,5.5);
#2600=CARTESIAN_POINT('',(20.5,21.,12.5));
#2610=VERTEX_POINT('',#2600);
#2620=CARTESIAN_POINT('',(9.5,21.,12.5));
#2630=VERTEX_POINT('',#2620);
#2640=EDGE_CURVE('',#2610,#2630,#2590,.T.);
#2650=ORIENTED_EDGE('',*,*,#2640,.T.);
#2660=EDGE_CURVE('',#2630,#2610,#2590,.T.);
#2670=ORIENTED_EDGE('',*,*,#2660,.T.);
#2680=EDGE_LOOP('',(#2670,#2650));
#2690=FACE_BOUND('',#2680,.T.);
#2700=ADVANCED_FACE('',(#2540,#2690),#2430,.T.);
#2710=CARTESIAN_POINT('',(26.,0.,0.));
#2720=DIRECTION('',(-1.,0.,0.));
#2730=DIRECTION('',(0.,1.,0.));
#2740=AXIS2_PLACEMENT_3D('',#2710,#2720,#2730);
#2750=PLANE('',#2740);
#2760=ORIENTED_EDGE('',*,*,#890,.F.);
#2770=CARTESIAN_POINT('',(26.,19.,0.));
#2780=DIRECTION('',(0.,0.,1.));
#2790=VECTOR('',#2780,1.);
#2800=LINE('',#2770,#2790);
#2810=EDGE_CURVE('',#800,#1380,#2800,.T.);
#2820=ORIENTED_EDGE('',*,*,#2810,.F.);
#2830=ORIENTED_EDGE('',*,*,#1390,.T.);
#2840=CARTESIAN_POINT('',(26.,6.,0.));
#2850=DIRECTION('',(0.,0.,1.));
#2860=VECTOR('',#2850,1.);
#2870=LINE('',#2840,#2860);
#2880=EDGE_CURVE('',#880,#1300,#2870,.T.);
#2890=ORIENTED_EDGE('',*,*,#2880,.T.);
#2900=EDGE_LOOP('',(#2890,#2830,#2820,#2760));
#2910=FACE_OUTER_BOUND('',#2900,.T.);
#2920=ADVANCED_FACE('',(#2910),#2750,.T.);
#2930=CARTESIAN_POINT('',(80.,0.,0.));
#2940=DIRECTION('',(-0.,-1.,-0.));
#2950=DIRECTION('',(-1.,0.,0.));
#2960=AXIS2_PLACEMENT_3D('',#2930,#2940,#2950);
#2970=PLANE('',#2960);
#2980=CARTESIAN_POINT('',(32.,0.,0.));
#2990=DIRECTION('',(0.,0.,1.));
#3000=VECTOR('',#2990,1.);
#3010=LINE('',#2980,#3000);
#3020=EDGE_CURVE('',#970,#1210,#3010,.T.);
#3030=ORIENTED_EDGE('',*,*,#3020,.F.);
#3040=ORIENTED_EDGE('',*,*,#1220,.T.);
#3050=CARTESIAN_POINT('',(80.,0.,0.));
#3060=DIRECTION('',(0.,0.,1.));
#3070=VECTOR('',#3060,1.);
#3080=LINE('',#3050,#3070);
#3090=EDGE_CURVE('',#130,#1190,#3080,.T.);
#3100=ORIENTED_EDGE('',*,*,#3090,.T.);
#3110=ORIENTED_EDGE('',*,*,#1040,.F.);
#3120=EDGE_LOOP('',(#3110,#3100,#3040,#3030));
#3130=FACE_OUTER_BOUND('',#3120,.T.);
#3140=CARTESIAN_POINT('',(70.,0.,12.5));
#3150=DIRECTION('',(0.,1.,0.));
#3160=DIRECTION('',(1.,0.,0.));
#3170=AXIS2_PLACEMENT_3D('',#3140,#3150,#3160);
#3180=CIRCLE('',#3170,5.5);
#3190=CARTESIAN_POINT('',(75.5,0.,12.5));
#3200=VERTEX_POINT('',#3190);
#3210=CARTESIAN_POINT('',(64.5,0.,12.5));
#3220=VERTEX_POINT('',#3210);
#3230=EDGE_CURVE('',#3200,#3220,#3180,.T.);
#3240=ORIENTED_EDGE('',*,*,#3230,.T.);
#3250=EDGE_CURVE('',#3220,#3200,#3180,.T.);
#3260=ORIENTED_EDGE('',*,*,#3250,.T.);
#3270=EDGE_LOOP('',(#3260,#3240));
#3280=FACE_BOUND('',#3270,.T.);
#3290=CARTESIAN_POINT('',(48.,0.,12.5));
#3300=DIRECTION('',(0.,1.,0.));
#3310=DIRECTION('',(1.,0.,0.));
#3320=AXIS2_PLACEMENT_3D('',#3290,#3300,#3310);
#3330=CIRCLE('',#3320,5.5);
#3340=CARTESIAN_POINT('',(53.5,0.,12.5));
#3350=VERTEX_POINT('',#3340);
#3360=CARTESIAN_POINT('',(42.5,0.,12.5));
#3370=VERTEX_POINT('',#3360);
#3380=EDGE_CURVE('',#3350,#3370,#3330,.T.);
#3390=ORIENTED_EDGE('',*,*,#3380,.T.);
#3400=EDGE_CURVE('',#3370,#3350,#3330,.T.);
#3410=ORIENTED_EDGE('',*,*,#3400,.T.);
#3420=EDGE_LOOP('',(#3410,#3390));
#3430=FACE_BOUND('',#3420,.T.);
#3440=ADVANCED_FACE('',(#3130,#3280,#3430),#2970,.T.);
#3450=CARTESIAN_POINT('',(80.,4.,0.));
#3460=DIRECTION('',(1.,0.,0.));
#3470=DIRECTION('',(0.,-1.,0.));
#3480=AXIS2_PLACEMENT_3D('',#3450,#3460,#3470);
#3490=PLANE('',#3480);
#3500=ORIENTED_EDGE('',*,*,#3090,.F.);
#3510=ORIENTED_EDGE('',*,*,#2120,.T.);
#3520=CARTESIAN_POINT('',(80.,4.,0.));
#3530=DIRECTION('',(0.,0.,1.));
#3540=VECTOR('',#3530,1.);
#3550=LINE('',#3520,#3540);
#3560=EDGE_CURVE('',#110,#2050,#3550,.T.);
#3570=ORIENTED_EDGE('',*,*,#3560,.T.);
#3580=ORIENTED_EDGE('',*,*,#140,.F.);
#3590=EDGE_LOOP('',(#3580,#3570,#3510,#3500));
#3600=FACE_OUTER_BOUND('',#3590,.T.);
#3610=ADVANCED_FACE('',(#3600),#3490,.T.);
#3620=CARTESIAN_POINT('',(30.,4.,0.));
#3630=DIRECTION('',(-0.,1.,0.));
#3640=DIRECTION('',(1.,0.,0.));
#3650=AXIS2_PLACEMENT_3D('',#3620,#3630,#3640);
#3660=PLANE('',#3650);
#3670=ORIENTED_EDGE('',*,*,#220,.F.);
#3680=ORIENTED_EDGE('',*,*,#3560,.F.);
#3690=ORIENTED_EDGE('',*,*,#2060,.T.);
#3700=CARTESIAN_POINT('',(32.,4.,0.));
#3710=DIRECTION('',(0.,0.,1.));
#3720=VECTOR('',#3710,1.);
#3730=LINE('',#3700,#3720);
#3740=EDGE_CURVE('',#210,#1970,#3730,.T.);
#3750=ORIENTED_EDGE('',*,*,#3740,.T.);
#3760=EDGE_LOOP('',(#3750,#3690,#3680,#3670));
#3770=FACE_OUTER_BOUND('',#3760,.T.);
#3780=CARTESIAN_POINT('',(70.,4.,12.5));
#3790=DIRECTION('',(0.,1.,0.));
#3800=DIRECTION('',(1.,0.,0.));
#3810=AXIS2_PLACEMENT_3D('',#3780,#3790,#3800);
#3820=CIRCLE('',#3810,5.5);
#3830=CARTESIAN_POINT('',(75.5,4.,12.5));
#3840=VERTEX_POINT('',#3830);
#3850=CARTESIAN_POINT('',(64.5,4.,12.5));
#3860=VERTEX_POINT('',#3850);
#3870=EDGE_CURVE('',#3840,#3860,#3820,.T.);
#3880=ORIENTED_EDGE('',*,*,#3870,.F.);
#3890=EDGE_CURVE('',#3860,#3840,#3820,.T.);
#3900=ORIENTED_EDGE('',*,*,#3890,.F.);
#3910=EDGE_LOOP('',(#3900,#3880));
#3920=FACE_BOUND('',#3910,.T.);
#3930=CARTESIAN_POINT('',(48.,4.,12.5));
#3940=DIRECTION('',(0.,1.,0.));
#3950=DIRECTION('',(1.,0.,0.));
#3960=AXIS2_PLACEMENT_3D('',#3930,#3940,#3950);
#3970=CIRCLE('',#3960,5.5);
#3980=CARTESIAN_POINT('',(53.5,4.,12.5));
#3990=VERTEX_POINT('',#3980);
#4000=CARTESIAN_POINT('',(42.5,4.,12.5));
#4010=VERTEX_POINT('',#4000);
#4020=EDGE_CURVE('',#3990,#4010,#3970,.T.);
#4030=ORIENTED_EDGE('',*,*,#4020,.F.);
#4040=EDGE_CURVE('',#4010,#3990,#3970,.T.);
#4050=ORIENTED_EDGE('',*,*,#4040,.F.);
#4060=EDGE_LOOP('',(#4050,#4030));
#4070=FACE_BOUND('',#4060,.T.);
#4080=ADVANCED_FACE('',(#3770,#3920,#4070),#3660,.T.);
#4090=CARTESIAN_POINT('',(30.,25.,0.));
#4100=DIRECTION('',(1.,0.,0.));
#4110=DIRECTION('',(0.,-1.,0.));
#4120=AXIS2_PLACEMENT_3D('',#4090,#4100,#4110);
#4130=PLANE('',#4120);
#4140=ORIENTED_EDGE('',*,*,#390,.F.);
#4150=CARTESIAN_POINT('',(30.,6.,0.));
#4160=DIRECTION('',(0.,0.,1.));
#4170=VECTOR('',#4160,1.);
#4180=LINE('',#4150,#4170);
#4190=EDGE_CURVE('',#300,#1880,#4180,.T.);
#4200=ORIENTED_EDGE('',*,*,#4190,.F.);
#4210=ORIENTED_EDGE('',*,*,#1890,.T.);
#4220=CARTESIAN_POINT('',(30.,19.,0.));
#4230=DIRECTION('',(0.,0.,1.));
#4240=VECTOR('',#4230,1.);
#4250=LINE('',#4220,#4240);
#4260=EDGE_CURVE('',#380,#1800,#4250,.T.);
#4270=ORIENTED_EDGE('',*,*,#4260,.T.);
#4280=EDGE_LOOP('',(#4270,#4210,#4200,#4140));
#4290=FACE_OUTER_BOUND('',#4280,.T.);
#4300=ADVANCED_FACE('',(#4290),#4130,.T.);
#4310=CARTESIAN_POINT('',(0.,25.,0.));
#4320=DIRECTION('',(-0.,1.,0.));
#4330=DIRECTION('',(1.,0.,0.));
#4340=AXIS2_PLACEMENT_3D('',#4310,#4320,#4330);
#4350=PLANE('',#4340);
#4360=CARTESIAN_POINT('',(24.,25.,0.));
#4370=DIRECTION('',(0.,0.,1.));
#4380=VECTOR('',#4370,1.);
#4390=LINE('',#4360,#4380);
#4400=EDGE_CURVE('',#470,#1710,#4390,.T.);
#4410=ORIENTED_EDGE('',*,*,#4400,.F.);
#4420=ORIENTED_EDGE('',*,*,#1720,.T.);
#4430=ORIENTED_EDGE('',*,*,#2260,.T.);
#4440=ORIENTED_EDGE('',*,*,#560,.F.);
#4450=EDGE_LOOP('',(#4440,#4430,#4420,#4410));
#4460=FACE_OUTER_BOUND('',#4450,.T.);
#4470=CARTESIAN_POINT('',(15.,25.,12.5));
#4480=DIRECTION('',(0.,1.,0.));
#4490=DIRECTION('',(1.,0.,0.));
#4500=AXIS2_PLACEMENT_3D('',#4470,#4480,#4490);
#4510=CIRCLE('',#4500,5.5);
#4520=CARTESIAN_POINT('',(20.5,25.,12.5));
#4530=VERTEX_POINT('',#4520);
#4540=CARTESIAN_POINT('',(9.5,25.,12.5));
#4550=VERTEX_POINT('',#4540);
#4560=EDGE_CURVE('',#4530,#4550,#4510,.T.);
#4570=ORIENTED_EDGE('',*,*,#4560,.F.);
#4580=EDGE_CURVE('',#4550,#4530,#4510,.T.);
#4590=ORIENTED_EDGE('',*,*,#4580,.F.);
#4600=EDGE_LOOP('',(#4590,#4570));
#4610=FACE_BOUND('',#4600,.T.);
#4620=ADVANCED_FACE('',(#4460,#4610),#4350,.T.);
#4630=CARTESIAN_POINT('',(32.,6.,0.));
#4640=DIRECTION('',(0.,0.,1.));
#4650=DIRECTION('',(1.,0.,0.));
#4660=AXIS2_PLACEMENT_3D('',#4630,#4640,#4650);
#4670=CYLINDRICAL_SURFACE('',#4660,2.);
#4680=ORIENTED_EDGE('',*,*,#1980,.T.);
#4690=ORIENTED_EDGE('',*,*,#4190,.T.);
#4700=ORIENTED_EDGE('',*,*,#310,.F.);
#4710=ORIENTED_EDGE('',*,*,#3740,.F.);
#4720=EDGE_LOOP('',(#4710,#4700,#4690,#4680));
#4730=FACE_OUTER_BOUND('',#4720,.T.);
#4740=ADVANCED_FACE('',(#4730),#4670,.F.);
#4750=CARTESIAN_POINT('',(24.,19.,0.));
#4760=DIRECTION('',(0.,0.,1.));
#4770=DIRECTION('',(1.,0.,0.));
#4780=AXIS2_PLACEMENT_3D('',#4750,#4760,#4770);
#4790=CYLINDRICAL_SURFACE('',#4780,2.);
#4800=ORIENTED_EDGE('',*,*,#1480,.T.);
#4810=ORIENTED_EDGE('',*,*,#2810,.T.);
#4820=ORIENTED_EDGE('',*,*,#810,.F.);
#4830=ORIENTED_EDGE('',*,*,#2510,.F.);
#4840=EDGE_LOOP('',(#4830,#4820,#4810,#4800));
#4850=FACE_OUTER_BOUND('',#4840,.T.);
#4860=ADVANCED_FACE('',(#4850),#4790,.F.);
#4870=CARTESIAN_POINT('',(24.,19.,0.));
#4880=DIRECTION('',(0.,0.,1.));
#4890=DIRECTION('',(1.,0.,0.));
#4900=AXIS2_PLACEMENT_3D('',#4870,#4880,#4890);
#4910=CYLINDRICAL_SURFACE('',#4900,6.);
#4920=ORIENTED_EDGE('',*,*,#1810,.F.);
#4930=ORIENTED_EDGE('',*,*,#4400,.T.);
#4940=ORIENTED_EDGE('',*,*,#480,.T.);
#4950=ORIENTED_EDGE('',*,*,#4260,.F.);
#4960=EDGE_LOOP('',(#4950,#4940,#4930,#4920));
#4970=FACE_OUTER_BOUND('',#4960,.T.);
#4980=ADVANCED_FACE('',(#4970),#4910,.T.);
#4990=CARTESIAN_POINT('',(32.,6.,0.));
#5000=DIRECTION('',(0.,0.,1.));
#5010=DIRECTION('',(1.,0.,0.));
#5020=AXIS2_PLACEMENT_3D('',#4990,#5000,#5010);
#5030=CYLINDRICAL_SURFACE('',#5020,6.);
#5040=ORIENTED_EDGE('',*,*,#1310,.F.);
#5050=ORIENTED_EDGE('',*,*,#3020,.T.);
#5060=ORIENTED_EDGE('',*,*,#980,.T.);
#5070=ORIENTED_EDGE('',*,*,#2880,.F.);
#5080=EDGE_LOOP('',(#5070,#5060,#5050,#5040));
#5090=FACE_OUTER_BOUND('',#5080,.T.);
#5100=ADVANCED_FACE('',(#5090),#5030,.T.);
#5110=CARTESIAN_POINT('',(70.,-2.5000024,12.5));
#5120=DIRECTION('',(0.,1.,0.));
#5130=DIRECTION('',(1.,0.,0.));
#5140=AXIS2_PLACEMENT_3D('',#5110,#5120,#5130);
#5150=CYLINDRICAL_SURFACE('',#5140,5.5);
#5160=CARTESIAN_POINT('',(75.5,-2.5000024,12.5));
#5170=DIRECTION('',(0.,1.,0.));
#5180=VECTOR('',#5170,1.);
#5190=LINE('',#5160,#5180);
#5200=EDGE_CURVE('',#3200,#3840,#5190,.T.);
#5210=ORIENTED_EDGE('',*,*,#5200,.F.);
#5220=ORIENTED_EDGE('',*,*,#3890,.T.);
#5230=CARTESIAN_POINT('',(64.5,-2.5000024,12.5));
#5240=DIRECTION('',(0.,1.,0.));
#5250=VECTOR('',#5240,1.);
#5260=LINE('',#5230,#5250);
#5270=EDGE_CURVE('',#3220,#3860,#5260,.T.);
#5280=ORIENTED_EDGE('',*,*,#5270,.T.);
#5290=ORIENTED_EDGE('',*,*,#3250,.F.);
#5300=EDGE_LOOP('',(#5290,#5280,#5220,#5210));
#5310=FACE_OUTER_BOUND('',#5300,.T.);
#5320=ADVANCED_FACE('',(#5310),#5150,.F.);
#5330=CARTESIAN_POINT('',(48.,-2.5000024,12.5));
#5340=DIRECTION('',(0.,1.,0.));
#5350=DIRECTION('',(1.,0.,0.));
#5360=AXIS2_PLACEMENT_3D('',#5330,#5340,#5350);
#5370=CYLINDRICAL_SURFACE('',#5360,5.5);
#5380=CARTESIAN_POINT('',(53.5,-2.5000024,12.5));
#5390=DIRECTION('',(0.,1.,0.));
#5400=VECTOR('',#5390,1.);
#5410=LINE('',#5380,#5400);
#5420=EDGE_CURVE('',#3350,#3990,#5410,.T.);
#5430=ORIENTED_EDGE('',*,*,#5420,.F.);
#5440=ORIENTED_EDGE('',*,*,#4040,.T.);
#5450=CARTESIAN_POINT('',(42.5,-2.5000024,12.5));
#5460=DIRECTION('',(0.,1.,0.));
#5470=VECTOR('',#5460,1.);
#5480=LINE('',#5450,#5470);
#5490=EDGE_CURVE('',#3370,#4010,#5480,.T.);
#5500=ORIENTED_EDGE('',*,*,#5490,.T.);
#5510=ORIENTED_EDGE('',*,*,#3400,.F.);
#5520=EDGE_LOOP('',(#5510,#5500,#5440,#5430));
#5530=FACE_OUTER_BOUND('',#5520,.T.);
#5540=ADVANCED_FACE('',(#5530),#5370,.F.);
#5550=CARTESIAN_POINT('',(15.,-2.5000024,12.5));
#5560=DIRECTION('',(0.,1.,0.));
#5570=DIRECTION('',(1.,0.,0.));
#5580=AXIS2_PLACEMENT_3D('',#5550,#5560,#5570);
#5590=CYLINDRICAL_SURFACE('',#5580,5.5);
#5600=CARTESIAN_POINT('',(20.5,-2.5000024,12.5));
#5610=DIRECTION('',(0.,1.,0.));
#5620=VECTOR('',#5610,1.);
#5630=LINE('',#5600,#5620);
#5640=EDGE_CURVE('',#2610,#4530,#5630,.T.);
#5650=ORIENTED_EDGE('',*,*,#5640,.F.);
#5660=ORIENTED_EDGE('',*,*,#4580,.T.);
#5670=CARTESIAN_POINT('',(9.5,-2.5000024,12.5));
#5680=DIRECTION('',(0.,1.,0.));
#5690=VECTOR('',#5680,1.);
#5700=LINE('',#5670,#5690);
#5710=EDGE_CURVE('',#2630,#4550,#5700,.T.);
#5720=ORIENTED_EDGE('',*,*,#5710,.T.);
#5730=ORIENTED_EDGE('',*,*,#2660,.F.);
#5740=EDGE_LOOP('',(#5730,#5720,#5660,#5650));
#5750=FACE_OUTER_BOUND('',#5740,.T.);
#5760=ADVANCED_FACE('',(#5750),#5590,.F.);
#5770=ORIENTED_EDGE('',*,*,#4560,.T.);
#5780=ORIENTED_EDGE('',*,*,#5640,.T.);
#5790=ORIENTED_EDGE('',*,*,#2640,.F.);
#5800=ORIENTED_EDGE('',*,*,#5710,.F.);
#5810=EDGE_LOOP('',(#5800,#5790,#5780,#5770));
#5820=FACE_OUTER_BOUND('',#5810,.T.);
#5830=ADVANCED_FACE('',(#5820),#5590,.F.);
#5840=ORIENTED_EDGE('',*,*,#3230,.F.);
#5850=ORIENTED_EDGE('',*,*,#5270,.F.);
#5860=ORIENTED_EDGE('',*,*,#3870,.T.);
#5870=ORIENTED_EDGE('',*,*,#5200,.T.);
#5880=EDGE_LOOP('',(#5870,#5860,#5850,#5840));
#5890=FACE_OUTER_BOUND('',#5880,.T.);
#5900=ADVANCED_FACE('',(#5890),#5150,.F.);
#5910=ORIENTED_EDGE('',*,*,#4020,.T.);
#5920=ORIENTED_EDGE('',*,*,#5420,.T.);
#5930=ORIENTED_EDGE('',*,*,#3380,.F.);
#5940=ORIENTED_EDGE('',*,*,#5490,.F.);
#5950=EDGE_LOOP('',(#5940,#5930,#5920,#5910));
#5960=FACE_OUTER_BOUND('',#5950,.T.);
#5970=ADVANCED_FACE('',(#5960),#5370,.F.);
#5980=CLOSED_SHELL('',(#2380,#2700,#2920,#3440,#3610,#4080,#4300,#4620,
#4740,#4860,#4980,#5100,#5320,#5540,#5760,#5830,#5900,#5970,#2160,#1080)
);
#5990=MANIFOLD_SOLID_BREP('',#5980);
#6000=CARTESIAN_POINT('',(0.,0.,0.));
#6010=DIRECTION('',(0.,0.,1.));
#6020=DIRECTION('',(1.,0.,0.));
#6030=AXIS2_PLACEMENT_3D('',#6000,#6010,#6020);
#6040=APPLICATION_CONTEXT(' ');
#6050=APPLICATION_PROTOCOL_DEFINITION(' ','automotive_design',1998,#6040
);
#6060=PRODUCT_CONTEXT('',#6040,'mechanical');
#6070=PRODUCT_DEFINITION_CONTEXT('part definition',#6040,'design');
#6080=PRODUCT('Endstueck','Endstueck','',(#6060));
#6090=PRODUCT_RELATED_PRODUCT_CATEGORY('part',' ',(#6080));
#6100=PRODUCT_DEFINITION_FORMATION_WITH_SPECIFIED_SOURCE('','',#6080,
.BOUGHT.);
#6110=PRODUCT_DEFINITION('',' ',#6100,#6070);
#6120=PRODUCT_DEFINITION_SHAPE('','',#6110);
#6130=DIMENSIONAL_EXPONENTS(1.,0.,0.,0.,0.,0.,0.);
#6140=DIMENSIONAL_EXPONENTS(0.,0.,0.,0.,0.,0.,0.);
#6150=DIMENSIONAL_EXPONENTS(0.,0.,0.,0.,0.,0.,0.);
#6160=(LENGTH_UNIT() NAMED_UNIT(*) SI_UNIT(.MILLI.,.METRE.));
#6170=(NAMED_UNIT(*) PLANE_ANGLE_UNIT() SI_UNIT($,.RADIAN.));
#6180=(NAMED_UNIT(*) SI_UNIT($,.STERADIAN.) SOLID_ANGLE_UNIT());
#6190=(GEOMETRIC_REPRESENTATION_CONTEXT(3) 
GLOBAL_UNCERTAINTY_ASSIGNED_CONTEXT((#6200)) 
GLOBAL_UNIT_ASSIGNED_CONTEXT((#6160,#6170,#6180)) REPRESENTATION_CONTEXT
('',''));
#6200=UNCERTAINTY_MEASURE_WITH_UNIT(LENGTH_MEASURE(1.E-6),#6160,
'distance_accuracy_value','maximum gap value');
#6210=ADVANCED_BREP_SHAPE_REPRESENTATION('',(#6030,#5990),#6190);
#6220=SHAPE_DEFINITION_REPRESENTATION(#6120,#6210);
#6230=COLOUR_RGB('',0.600000023841858,0.600000023841858,
0.600000023841858);
#6240=FILL_AREA_STYLE_COLOUR('',#6230);
#6250=FILL_AREA_STYLE('',(#6240));
#6260=SURFACE_STYLE_FILL_AREA(#6250);
#6270=SURFACE_SIDE_STYLE('',(#6260));
#6280=SURFACE_STYLE_USAGE(.BOTH.,#6270);
#6290=PRESENTATION_STYLE_ASSIGNMENT((#6280));
#6300=STYLED_ITEM('',(#6290),#5990);
#6310=DRAUGHTING_MODEL('',(#6300),#6190);
ENDSEC;
END-ISO-10303-21;
