ISO-10303-21;
HEADER;
/* Generated by software containing ST-Developer
 * from STEP Tools, Inc. (www.steptools.com) 
 */
/* OPTION: using custom schema-name function */

FILE_DESCRIPTION(
/* description */ (''),
/* implementation_level */ '2;1');

FILE_NAME(
/* name */ '6019617',
/* time_stamp */ '2014-03-23T14:43:38+01:00',
/* author */ (''),
/* organization */ (''),
/* preprocessor_version */ 'ST-DEVELOPER v15',
/* originating_system */ '',
/* authorisation */ '');

FILE_SCHEMA (('AUTOMOTIVE_DESIGN'));
ENDSEC;

DATA;
#10=(
REPRESENTATION_RELATIONSHIP('','',#364,#363)
REPRESENTATION_RELATIONSHIP_WITH_TRANSFORMATION(#11)
SHAPE_REPRESENTATION_RELATIONSHIP()
);
#11=ITEM_DEFINED_TRANSFORMATION('','',#366,#388);
#12=CONTEXT_DEPENDENT_SHAPE_REPRESENTATION(#10,#330);
#13=NEXT_ASSEMBLY_USAGE_OCCURRENCE('','','',#333,#334,'');
#14=SHAPE_REPRESENTATION_RELATIONSHIP('','',#364,#19);
#15=PRESENTATION_LAYER_ASSIGNMENT('Default','',(#17));
#16=PRESENTATION_LAYER_ASSIGNMENT('Default','',(#18));
#17=MANIFOLD_SOLID_BREP('Spiegeln1',#20);
#18=MANIFOLD_SOLID_BREP('Langloch',#21);
#19=ADVANCED_BREP_SHAPE_REPRESENTATION('brep_rep_0',(#17,#18,#387),#362);
#20=CLOSED_SHELL('',(#22,#23,#24,#25,#26,#27,#28,#29,#30,#31));
#21=CLOSED_SHELL('',(#32,#33,#34,#35,#36,#37,#38,#39,#40,#41));
#22=ADVANCED_FACE('',(#42),#306,.T.);
#23=ADVANCED_FACE('',(#43),#307,.T.);
#24=ADVANCED_FACE('',(#44),#308,.T.);
#25=ADVANCED_FACE('',(#45),#309,.T.);
#26=ADVANCED_FACE('',(#46),#310,.T.);
#27=ADVANCED_FACE('',(#47),#311,.T.);
#28=ADVANCED_FACE('',(#48),#312,.T.);
#29=ADVANCED_FACE('',(#49),#313,.T.);
#30=ADVANCED_FACE('',(#50),#314,.T.);
#31=ADVANCED_FACE('',(#51),#315,.T.);
#32=ADVANCED_FACE('',(#52),#316,.T.);
#33=ADVANCED_FACE('',(#53),#317,.T.);
#34=ADVANCED_FACE('',(#54),#318,.T.);
#35=ADVANCED_FACE('',(#55),#319,.T.);
#36=ADVANCED_FACE('',(#56),#320,.T.);
#37=ADVANCED_FACE('',(#57),#321,.T.);
#38=ADVANCED_FACE('',(#58),#322,.T.);
#39=ADVANCED_FACE('',(#59),#323,.T.);
#40=ADVANCED_FACE('',(#60),#324,.T.);
#41=ADVANCED_FACE('',(#61),#325,.T.);
#42=FACE_OUTER_BOUND('',#62,.T.);
#43=FACE_OUTER_BOUND('',#63,.T.);
#44=FACE_OUTER_BOUND('',#64,.T.);
#45=FACE_OUTER_BOUND('',#65,.T.);
#46=FACE_OUTER_BOUND('',#66,.T.);
#47=FACE_OUTER_BOUND('',#67,.T.);
#48=FACE_OUTER_BOUND('',#68,.T.);
#49=FACE_OUTER_BOUND('',#69,.T.);
#50=FACE_OUTER_BOUND('',#70,.T.);
#51=FACE_OUTER_BOUND('',#71,.T.);
#52=FACE_OUTER_BOUND('',#72,.T.);
#53=FACE_OUTER_BOUND('',#73,.T.);
#54=FACE_OUTER_BOUND('',#74,.T.);
#55=FACE_OUTER_BOUND('',#75,.T.);
#56=FACE_OUTER_BOUND('',#76,.T.);
#57=FACE_OUTER_BOUND('',#77,.T.);
#58=FACE_OUTER_BOUND('',#78,.T.);
#59=FACE_OUTER_BOUND('',#79,.T.);
#60=FACE_OUTER_BOUND('',#80,.T.);
#61=FACE_OUTER_BOUND('',#81,.T.);
#62=EDGE_LOOP('',(#82,#83,#84,#85,#86,#87,#88,#89));
#63=EDGE_LOOP('',(#90,#91,#92,#93,#94,#95,#96,#97));
#64=EDGE_LOOP('',(#98,#99,#100,#101));
#65=EDGE_LOOP('',(#102,#103,#104,#105));
#66=EDGE_LOOP('',(#106,#107,#108,#109));
#67=EDGE_LOOP('',(#110,#111,#112,#113));
#68=EDGE_LOOP('',(#114,#115,#116,#117));
#69=EDGE_LOOP('',(#118,#119,#120,#121));
#70=EDGE_LOOP('',(#122,#123,#124,#125));
#71=EDGE_LOOP('',(#126,#127,#128,#129));
#72=EDGE_LOOP('',(#130,#131,#132,#133,#134,#135,#136,#137));
#73=EDGE_LOOP('',(#138,#139,#140,#141,#142,#143,#144,#145));
#74=EDGE_LOOP('',(#146,#147,#148,#149));
#75=EDGE_LOOP('',(#150,#151,#152,#153));
#76=EDGE_LOOP('',(#154,#155,#156,#157));
#77=EDGE_LOOP('',(#158,#159,#160,#161));
#78=EDGE_LOOP('',(#162,#163,#164,#165));
#79=EDGE_LOOP('',(#166,#167,#168,#169));
#80=EDGE_LOOP('',(#170,#171,#172,#173));
#81=EDGE_LOOP('',(#174,#175,#176,#177));
#82=ORIENTED_EDGE('',*,*,#179,.F.);
#83=ORIENTED_EDGE('',*,*,#180,.F.);
#84=ORIENTED_EDGE('',*,*,#181,.F.);
#85=ORIENTED_EDGE('',*,*,#182,.F.);
#86=ORIENTED_EDGE('',*,*,#183,.F.);
#87=ORIENTED_EDGE('',*,*,#184,.F.);
#88=ORIENTED_EDGE('',*,*,#185,.F.);
#89=ORIENTED_EDGE('',*,*,#178,.F.);
#90=ORIENTED_EDGE('',*,*,#187,.F.);
#91=ORIENTED_EDGE('',*,*,#188,.F.);
#92=ORIENTED_EDGE('',*,*,#189,.F.);
#93=ORIENTED_EDGE('',*,*,#190,.F.);
#94=ORIENTED_EDGE('',*,*,#191,.F.);
#95=ORIENTED_EDGE('',*,*,#192,.F.);
#96=ORIENTED_EDGE('',*,*,#193,.F.);
#97=ORIENTED_EDGE('',*,*,#186,.F.);
#98=ORIENTED_EDGE('',*,*,#189,.T.);
#99=ORIENTED_EDGE('',*,*,#194,.F.);
#100=ORIENTED_EDGE('',*,*,#183,.T.);
#101=ORIENTED_EDGE('',*,*,#195,.F.);
#102=ORIENTED_EDGE('',*,*,#182,.T.);
#103=ORIENTED_EDGE('',*,*,#196,.T.);
#104=ORIENTED_EDGE('',*,*,#190,.T.);
#105=ORIENTED_EDGE('',*,*,#195,.T.);
#106=ORIENTED_EDGE('',*,*,#198,.T.);
#107=ORIENTED_EDGE('',*,*,#186,.T.);
#108=ORIENTED_EDGE('',*,*,#197,.F.);
#109=ORIENTED_EDGE('',*,*,#178,.T.);
#110=ORIENTED_EDGE('',*,*,#198,.F.);
#111=ORIENTED_EDGE('',*,*,#185,.T.);
#112=ORIENTED_EDGE('',*,*,#199,.T.);
#113=ORIENTED_EDGE('',*,*,#187,.T.);
#114=ORIENTED_EDGE('',*,*,#193,.T.);
#115=ORIENTED_EDGE('',*,*,#200,.F.);
#116=ORIENTED_EDGE('',*,*,#179,.T.);
#117=ORIENTED_EDGE('',*,*,#197,.T.);
#118=ORIENTED_EDGE('',*,*,#196,.F.);
#119=ORIENTED_EDGE('',*,*,#181,.T.);
#120=ORIENTED_EDGE('',*,*,#201,.F.);
#121=ORIENTED_EDGE('',*,*,#191,.T.);
#122=ORIENTED_EDGE('',*,*,#180,.T.);
#123=ORIENTED_EDGE('',*,*,#200,.T.);
#124=ORIENTED_EDGE('',*,*,#192,.T.);
#125=ORIENTED_EDGE('',*,*,#201,.T.);
#126=ORIENTED_EDGE('',*,*,#184,.T.);
#127=ORIENTED_EDGE('',*,*,#194,.T.);
#128=ORIENTED_EDGE('',*,*,#188,.T.);
#129=ORIENTED_EDGE('',*,*,#199,.F.);
#130=ORIENTED_EDGE('',*,*,#202,.T.);
#131=ORIENTED_EDGE('',*,*,#209,.T.);
#132=ORIENTED_EDGE('',*,*,#208,.T.);
#133=ORIENTED_EDGE('',*,*,#207,.T.);
#134=ORIENTED_EDGE('',*,*,#206,.T.);
#135=ORIENTED_EDGE('',*,*,#205,.T.);
#136=ORIENTED_EDGE('',*,*,#204,.T.);
#137=ORIENTED_EDGE('',*,*,#203,.T.);
#138=ORIENTED_EDGE('',*,*,#211,.F.);
#139=ORIENTED_EDGE('',*,*,#212,.F.);
#140=ORIENTED_EDGE('',*,*,#213,.F.);
#141=ORIENTED_EDGE('',*,*,#214,.F.);
#142=ORIENTED_EDGE('',*,*,#215,.F.);
#143=ORIENTED_EDGE('',*,*,#216,.F.);
#144=ORIENTED_EDGE('',*,*,#217,.F.);
#145=ORIENTED_EDGE('',*,*,#210,.F.);
#146=ORIENTED_EDGE('',*,*,#219,.T.);
#147=ORIENTED_EDGE('',*,*,#213,.T.);
#148=ORIENTED_EDGE('',*,*,#218,.F.);
#149=ORIENTED_EDGE('',*,*,#206,.F.);
#150=ORIENTED_EDGE('',*,*,#219,.F.);
#151=ORIENTED_EDGE('',*,*,#207,.F.);
#152=ORIENTED_EDGE('',*,*,#220,.F.);
#153=ORIENTED_EDGE('',*,*,#214,.T.);
#154=ORIENTED_EDGE('',*,*,#222,.T.);
#155=ORIENTED_EDGE('',*,*,#217,.T.);
#156=ORIENTED_EDGE('',*,*,#221,.T.);
#157=ORIENTED_EDGE('',*,*,#202,.F.);
#158=ORIENTED_EDGE('',*,*,#222,.F.);
#159=ORIENTED_EDGE('',*,*,#203,.F.);
#160=ORIENTED_EDGE('',*,*,#223,.F.);
#161=ORIENTED_EDGE('',*,*,#210,.T.);
#162=ORIENTED_EDGE('',*,*,#208,.F.);
#163=ORIENTED_EDGE('',*,*,#224,.F.);
#164=ORIENTED_EDGE('',*,*,#215,.T.);
#165=ORIENTED_EDGE('',*,*,#220,.T.);
#166=ORIENTED_EDGE('',*,*,#204,.F.);
#167=ORIENTED_EDGE('',*,*,#225,.F.);
#168=ORIENTED_EDGE('',*,*,#211,.T.);
#169=ORIENTED_EDGE('',*,*,#223,.T.);
#170=ORIENTED_EDGE('',*,*,#216,.T.);
#171=ORIENTED_EDGE('',*,*,#224,.T.);
#172=ORIENTED_EDGE('',*,*,#209,.F.);
#173=ORIENTED_EDGE('',*,*,#221,.F.);
#174=ORIENTED_EDGE('',*,*,#212,.T.);
#175=ORIENTED_EDGE('',*,*,#225,.T.);
#176=ORIENTED_EDGE('',*,*,#205,.F.);
#177=ORIENTED_EDGE('',*,*,#218,.T.);
#178=EDGE_CURVE('',#274,#281,#226,.T.);
#179=EDGE_CURVE('',#275,#274,#227,.T.);
#180=EDGE_CURVE('',#276,#275,#228,.T.);
#181=EDGE_CURVE('',#277,#276,#229,.T.);
#182=EDGE_CURVE('',#278,#277,#230,.T.);
#183=EDGE_CURVE('',#279,#278,#231,.T.);
#184=EDGE_CURVE('',#280,#279,#232,.T.);
#185=EDGE_CURVE('',#281,#280,#233,.T.);
#186=EDGE_CURVE('',#282,#289,#234,.T.);
#187=EDGE_CURVE('',#283,#282,#235,.T.);
#188=EDGE_CURVE('',#284,#283,#236,.T.);
#189=EDGE_CURVE('',#285,#284,#237,.T.);
#190=EDGE_CURVE('',#286,#285,#238,.T.);
#191=EDGE_CURVE('',#287,#286,#239,.T.);
#192=EDGE_CURVE('',#288,#287,#240,.T.);
#193=EDGE_CURVE('',#289,#288,#241,.T.);
#194=EDGE_CURVE('',#279,#284,#242,.T.);
#195=EDGE_CURVE('',#285,#278,#243,.T.);
#196=EDGE_CURVE('',#277,#286,#244,.T.);
#197=EDGE_CURVE('',#274,#289,#245,.T.);
#198=EDGE_CURVE('',#281,#282,#246,.T.);
#199=EDGE_CURVE('',#280,#283,#247,.T.);
#200=EDGE_CURVE('',#275,#288,#248,.T.);
#201=EDGE_CURVE('',#287,#276,#249,.T.);
#202=EDGE_CURVE('',#290,#297,#250,.T.);
#203=EDGE_CURVE('',#291,#290,#251,.T.);
#204=EDGE_CURVE('',#292,#291,#252,.T.);
#205=EDGE_CURVE('',#293,#292,#253,.T.);
#206=EDGE_CURVE('',#294,#293,#254,.T.);
#207=EDGE_CURVE('',#295,#294,#255,.T.);
#208=EDGE_CURVE('',#296,#295,#256,.T.);
#209=EDGE_CURVE('',#297,#296,#257,.T.);
#210=EDGE_CURVE('',#298,#305,#258,.T.);
#211=EDGE_CURVE('',#299,#298,#259,.T.);
#212=EDGE_CURVE('',#300,#299,#260,.T.);
#213=EDGE_CURVE('',#301,#300,#261,.T.);
#214=EDGE_CURVE('',#302,#301,#262,.T.);
#215=EDGE_CURVE('',#303,#302,#263,.T.);
#216=EDGE_CURVE('',#304,#303,#264,.T.);
#217=EDGE_CURVE('',#305,#304,#265,.T.);
#218=EDGE_CURVE('',#293,#300,#266,.T.);
#219=EDGE_CURVE('',#294,#301,#267,.T.);
#220=EDGE_CURVE('',#302,#295,#268,.T.);
#221=EDGE_CURVE('',#304,#297,#269,.T.);
#222=EDGE_CURVE('',#290,#305,#270,.T.);
#223=EDGE_CURVE('',#298,#291,#271,.T.);
#224=EDGE_CURVE('',#303,#296,#272,.T.);
#225=EDGE_CURVE('',#299,#292,#273,.T.);
#226=B_SPLINE_CURVE_WITH_KNOTS('',1,(#445,#446),.UNSPECIFIED.,.F.,.F.,(2,
2),(-47.1978336212539,-43.9670643904847),.UNSPECIFIED.);
#227=B_SPLINE_CURVE_WITH_KNOTS('',1,(#447,#448),.UNSPECIFIED.,.F.,.F.,(2,
2),(48.5,85.088785046729),.UNSPECIFIED.);
#228=B_SPLINE_CURVE_WITH_KNOTS('',1,(#449,#450),.UNSPECIFIED.,.F.,.F.,(2,
2),(43.5,48.5),.UNSPECIFIED.);
#229=B_SPLINE_CURVE_WITH_KNOTS('',1,(#451,#452),.UNSPECIFIED.,.F.,.F.,(2,
2),(2.84579439252337,43.5),.UNSPECIFIED.);
#230=B_SPLINE_CURVE_WITH_KNOTS('',1,(#453,#454),.UNSPECIFIED.,.F.,.F.,(2,
2),(-0.384974838245867,2.84579439252337),.UNSPECIFIED.);
#231=B_SPLINE_CURVE_WITH_KNOTS('',1,(#455,#456),.UNSPECIFIED.,.F.,.F.,(2,
2),(-17.9222882710817,-0.384974838245867),.UNSPECIFIED.);
#232=B_SPLINE_CURVE_WITH_KNOTS('',1,(#457,#458),.UNSPECIFIED.,.F.,.F.,(2,
2),(-22.9222882710817,-17.9222882710817),.UNSPECIFIED.);
#233=B_SPLINE_CURVE_WITH_KNOTS('',1,(#459,#460),.UNSPECIFIED.,.F.,.F.,(2,
2),(-43.9670643904847,-22.9222882710817),.UNSPECIFIED.);
#234=B_SPLINE_CURVE_WITH_KNOTS('',1,(#461,#462),.UNSPECIFIED.,.F.,.F.,(2,
2),(-106.24184254858,-103.011073317811),.UNSPECIFIED.);
#235=B_SPLINE_CURVE_WITH_KNOTS('',1,(#463,#464),.UNSPECIFIED.,.F.,.F.,(2,
2),(5.,26.044776119403),.UNSPECIFIED.);
#236=B_SPLINE_CURVE_WITH_KNOTS('',1,(#465,#466),.UNSPECIFIED.,.F.,.F.,(2,
2),(0.,5.),.UNSPECIFIED.);
#237=B_SPLINE_CURVE_WITH_KNOTS('',1,(#467,#468),.UNSPECIFIED.,.F.,.F.,(2,
2),(-17.5373134328358,0.),.UNSPECIFIED.);
#238=B_SPLINE_CURVE_WITH_KNOTS('',1,(#469,#470),.UNSPECIFIED.,.F.,.F.,(2,
2),(-20.7680826636051,-17.5373134328358),.UNSPECIFIED.);
#239=B_SPLINE_CURVE_WITH_KNOTS('',1,(#471,#472),.UNSPECIFIED.,.F.,.F.,(2,
2),(-61.4222882710817,-20.7680826636051),.UNSPECIFIED.);
#240=B_SPLINE_CURVE_WITH_KNOTS('',1,(#473,#474),.UNSPECIFIED.,.F.,.F.,(2,
2),(-66.4222882710817,-61.4222882710817),.UNSPECIFIED.);
#241=B_SPLINE_CURVE_WITH_KNOTS('',1,(#475,#476),.UNSPECIFIED.,.F.,.F.,(2,
2),(-103.011073317811,-66.4222882710817),.UNSPECIFIED.);
#242=B_SPLINE_CURVE_WITH_KNOTS('',1,(#477,#478),.UNSPECIFIED.,.F.,.F.,(2,
2),(-30.,0.),.UNSPECIFIED.);
#243=B_SPLINE_CURVE_WITH_KNOTS('',1,(#479,#480),.UNSPECIFIED.,.F.,.F.,(2,
2),(-48.0012,-18.0012),.UNSPECIFIED.);
#244=B_SPLINE_CURVE_WITH_KNOTS('',1,(#481,#482),.UNSPECIFIED.,.F.,.F.,(2,
2),(3.00120000000001,33.0012),.UNSPECIFIED.);
#245=B_SPLINE_CURVE_WITH_KNOTS('',1,(#483,#484),.UNSPECIFIED.,.F.,.F.,(2,
2),(3.0012,33.0012),.UNSPECIFIED.);
#246=B_SPLINE_CURVE_WITH_KNOTS('',1,(#485,#486),.UNSPECIFIED.,.F.,.F.,(2,
2),(18.0012,48.0012),.UNSPECIFIED.);
#247=B_SPLINE_CURVE_WITH_KNOTS('',1,(#487,#488),.UNSPECIFIED.,.F.,.F.,(2,
2),(-30.,0.),.UNSPECIFIED.);
#248=B_SPLINE_CURVE_WITH_KNOTS('',1,(#489,#490),.UNSPECIFIED.,.F.,.F.,(2,
2),(-30.,0.),.UNSPECIFIED.);
#249=B_SPLINE_CURVE_WITH_KNOTS('',1,(#491,#492),.UNSPECIFIED.,.F.,.F.,(2,
2),(0.,30.),.UNSPECIFIED.);
#250=B_SPLINE_CURVE_WITH_KNOTS('',1,(#519,#520),.UNSPECIFIED.,.F.,.F.,(2,
2),(-30.9090909090909,-5.),.UNSPECIFIED.);
#251=B_SPLINE_CURVE_WITH_KNOTS('',1,(#521,#522),.UNSPECIFIED.,.F.,.F.,(2,
2),(97.9127882426851,100.162788242685),.UNSPECIFIED.);
#252=B_SPLINE_CURVE_WITH_KNOTS('',1,(#523,#524),.UNSPECIFIED.,.F.,.F.,(2,
2),(66.1602109230975,97.9127882426851),.UNSPECIFIED.);
#253=B_SPLINE_CURVE_WITH_KNOTS('',1,(#525,#526),.UNSPECIFIED.,.F.,.F.,(2,
2),(61.1602109230975,66.1602109230975),.UNSPECIFIED.);
#254=B_SPLINE_CURVE_WITH_KNOTS('',1,(#527,#528),.UNSPECIFIED.,.F.,.F.,(2,
2),(25.4385614385614,61.1602109230975),.UNSPECIFIED.);
#255=B_SPLINE_CURVE_WITH_KNOTS('',1,(#529,#530),.UNSPECIFIED.,.F.,.F.,(2,
2),(22.2077922077922,25.4385614385614),.UNSPECIFIED.);
#256=B_SPLINE_CURVE_WITH_KNOTS('',1,(#531,#532),.UNSPECIFIED.,.F.,.F.,(2,
2),(0.,22.2077922077922),.UNSPECIFIED.);
#257=B_SPLINE_CURVE_WITH_KNOTS('',1,(#533,#534),.UNSPECIFIED.,.F.,.F.,(2,
2),(-5.,0.),.UNSPECIFIED.);
#258=B_SPLINE_CURVE_WITH_KNOTS('',1,(#535,#536),.UNSPECIFIED.,.F.,.F.,(2,
2),(-55.8193018321884,-53.5693018321885),.UNSPECIFIED.);
#259=B_SPLINE_CURVE_WITH_KNOTS('',1,(#537,#538),.UNSPECIFIED.,.F.,.F.,(2,
2),(43.5,75.2525773195876),.UNSPECIFIED.);
#260=B_SPLINE_CURVE_WITH_KNOTS('',1,(#539,#540),.UNSPECIFIED.,.F.,.F.,(2,
2),(38.5,43.5),.UNSPECIFIED.);
#261=B_SPLINE_CURVE_WITH_KNOTS('',1,(#541,#542),.UNSPECIFIED.,.F.,.F.,(2,
2),(2.77835051546392,38.5),.UNSPECIFIED.);
#262=B_SPLINE_CURVE_WITH_KNOTS('',1,(#543,#544),.UNSPECIFIED.,.F.,.F.,(2,
2),(-0.452418715305313,2.77835051546392),.UNSPECIFIED.);
#263=B_SPLINE_CURVE_WITH_KNOTS('',1,(#545,#546),.UNSPECIFIED.,.F.,.F.,(2,
2),(-22.6602109230975,-0.452418715305313),.UNSPECIFIED.);
#264=B_SPLINE_CURVE_WITH_KNOTS('',1,(#547,#548),.UNSPECIFIED.,.F.,.F.,(2,
2),(-27.6602109230975,-22.6602109230975),.UNSPECIFIED.);
#265=B_SPLINE_CURVE_WITH_KNOTS('',1,(#549,#550),.UNSPECIFIED.,.F.,.F.,(2,
2),(-53.5693018321885,-27.6602109230975),.UNSPECIFIED.);
#266=B_SPLINE_CURVE_WITH_KNOTS('',1,(#551,#552),.UNSPECIFIED.,.F.,.F.,(2,
2),(0.,30.),.UNSPECIFIED.);
#267=B_SPLINE_CURVE_WITH_KNOTS('',1,(#553,#554),.UNSPECIFIED.,.F.,.F.,(2,
2),(-33.0012,-3.00120000000001),.UNSPECIFIED.);
#268=B_SPLINE_CURVE_WITH_KNOTS('',1,(#555,#556),.UNSPECIFIED.,.F.,.F.,(2,
2),(-36.0024,-6.0024),.UNSPECIFIED.);
#269=B_SPLINE_CURVE_WITH_KNOTS('',1,(#557,#558),.UNSPECIFIED.,.F.,.F.,(2,
2),(-30.,0.),.UNSPECIFIED.);
#270=B_SPLINE_CURVE_WITH_KNOTS('',1,(#559,#560),.UNSPECIFIED.,.F.,.F.,(2,
2),(6.0024,36.0024),.UNSPECIFIED.);
#271=B_SPLINE_CURVE_WITH_KNOTS('',1,(#561,#562),.UNSPECIFIED.,.F.,.F.,(2,
2),(-33.0012,-3.0012),.UNSPECIFIED.);
#272=B_SPLINE_CURVE_WITH_KNOTS('',1,(#563,#564),.UNSPECIFIED.,.F.,.F.,(2,
2),(-30.,0.),.UNSPECIFIED.);
#273=B_SPLINE_CURVE_WITH_KNOTS('',1,(#565,#566),.UNSPECIFIED.,.F.,.F.,(2,
2),(-30.,0.),.UNSPECIFIED.);
#274=VERTEX_POINT('',#429);
#275=VERTEX_POINT('',#430);
#276=VERTEX_POINT('',#431);
#277=VERTEX_POINT('',#432);
#278=VERTEX_POINT('',#433);
#279=VERTEX_POINT('',#434);
#280=VERTEX_POINT('',#435);
#281=VERTEX_POINT('',#436);
#282=VERTEX_POINT('',#437);
#283=VERTEX_POINT('',#438);
#284=VERTEX_POINT('',#439);
#285=VERTEX_POINT('',#440);
#286=VERTEX_POINT('',#441);
#287=VERTEX_POINT('',#442);
#288=VERTEX_POINT('',#443);
#289=VERTEX_POINT('',#444);
#290=VERTEX_POINT('',#503);
#291=VERTEX_POINT('',#504);
#292=VERTEX_POINT('',#505);
#293=VERTEX_POINT('',#506);
#294=VERTEX_POINT('',#507);
#295=VERTEX_POINT('',#508);
#296=VERTEX_POINT('',#509);
#297=VERTEX_POINT('',#510);
#298=VERTEX_POINT('',#511);
#299=VERTEX_POINT('',#512);
#300=VERTEX_POINT('',#513);
#301=VERTEX_POINT('',#514);
#302=VERTEX_POINT('',#515);
#303=VERTEX_POINT('',#516);
#304=VERTEX_POINT('',#517);
#305=VERTEX_POINT('',#518);
#306=PLANE('',#367);
#307=PLANE('',#368);
#308=PLANE('',#369);
#309=PLANE('',#370);
#310=PLANE('',#371);
#311=PLANE('',#372);
#312=PLANE('',#373);
#313=PLANE('',#374);
#314=PLANE('',#375);
#315=PLANE('',#376);
#316=PLANE('',#377);
#317=PLANE('',#378);
#318=PLANE('',#379);
#319=PLANE('',#380);
#320=PLANE('',#381);
#321=PLANE('',#382);
#322=PLANE('',#383);
#323=PLANE('',#384);
#324=PLANE('',#385);
#325=PLANE('',#386);
#326=SHAPE_DEFINITION_REPRESENTATION(#328,#363);
#327=SHAPE_DEFINITION_REPRESENTATION(#329,#364);
#328=PRODUCT_DEFINITION_SHAPE('Document','',#333);
#329=PRODUCT_DEFINITION_SHAPE('Block 01','',#334);
#330=PRODUCT_DEFINITION_SHAPE('','',#13);
#331=PRODUCT_DEFINITION_CONTEXT('3D Mechanical Parts',#341,'design');
#332=PRODUCT_DEFINITION_CONTEXT('3D Mechanical Parts',#342,'design');
#333=PRODUCT_DEFINITION('A','First version',#335,#331);
#334=PRODUCT_DEFINITION('A','First version',#336,#332);
#335=PRODUCT_DEFINITION_FORMATION_WITH_SPECIFIED_SOURCE('A',
'First version',#345,.MADE.);
#336=PRODUCT_DEFINITION_FORMATION_WITH_SPECIFIED_SOURCE('A',
'First version',#346,.MADE.);
#337=PRODUCT_RELATED_PRODUCT_CATEGORY('tool','tool',(#345));
#338=PRODUCT_RELATED_PRODUCT_CATEGORY('tool','tool',(#346));
#339=APPLICATION_PROTOCOL_DEFINITION('Draft International Standard',
'automotive_design',1999,#341);
#340=APPLICATION_PROTOCOL_DEFINITION('Draft International Standard',
'automotive_design',1999,#342);
#341=APPLICATION_CONTEXT(
'data for automotive mechanical design processes');
#342=APPLICATION_CONTEXT(
'data for automotive mechanical design processes');
#343=PRODUCT_CONTEXT('3D Mechanical Parts',#341,'mechanical');
#344=PRODUCT_CONTEXT('3D Mechanical Parts',#342,'mechanical');
#345=PRODUCT('Document','Document','Rhino converted to STEP',(#343));
#346=PRODUCT('Block 01','Block 01','Rhino converted to STEP',(#344));
#347=(
LENGTH_UNIT()
NAMED_UNIT(*)
SI_UNIT(.MILLI.,.METRE.)
);
#348=(
LENGTH_UNIT()
NAMED_UNIT(*)
SI_UNIT(.MILLI.,.METRE.)
);
#349=(
NAMED_UNIT(*)
PLANE_ANGLE_UNIT()
SI_UNIT($,.RADIAN.)
);
#350=(
NAMED_UNIT(*)
PLANE_ANGLE_UNIT()
SI_UNIT($,.RADIAN.)
);
#351=DIMENSIONAL_EXPONENTS(0.,0.,0.,0.,0.,0.,0.);
#352=DIMENSIONAL_EXPONENTS(0.,0.,0.,0.,0.,0.,0.);
#353=PLANE_ANGLE_MEASURE_WITH_UNIT(PLANE_ANGLE_MEASURE(0.01745329252),#349);
#354=PLANE_ANGLE_MEASURE_WITH_UNIT(PLANE_ANGLE_MEASURE(0.01745329252),#350);
#355=(
CONVERSION_BASED_UNIT('DEGREES',#353)
NAMED_UNIT(#351)
PLANE_ANGLE_UNIT()
);
#356=(
CONVERSION_BASED_UNIT('DEGREES',#354)
NAMED_UNIT(#352)
PLANE_ANGLE_UNIT()
);
#357=(
NAMED_UNIT(*)
SI_UNIT($,.STERADIAN.)
SOLID_ANGLE_UNIT()
);
#358=(
NAMED_UNIT(*)
SI_UNIT($,.STERADIAN.)
SOLID_ANGLE_UNIT()
);
#359=UNCERTAINTY_MEASURE_WITH_UNIT(LENGTH_MEASURE(0.0001),#347,
'DISTANCE_ACCURACY_VALUE',
'Maximum model space distance between geometric entities at asserted c
onnectivities');
#360=UNCERTAINTY_MEASURE_WITH_UNIT(LENGTH_MEASURE(0.0001),#348,
'DISTANCE_ACCURACY_VALUE',
'Maximum model space distance between geometric entities at asserted c
onnectivities');
#361=(
GEOMETRIC_REPRESENTATION_CONTEXT(3)
GLOBAL_UNCERTAINTY_ASSIGNED_CONTEXT((#359))
GLOBAL_UNIT_ASSIGNED_CONTEXT((#357,#355,#347))
REPRESENTATION_CONTEXT('ID1','3D')
);
#362=(
GEOMETRIC_REPRESENTATION_CONTEXT(3)
GLOBAL_UNCERTAINTY_ASSIGNED_CONTEXT((#360))
GLOBAL_UNIT_ASSIGNED_CONTEXT((#358,#356,#348))
REPRESENTATION_CONTEXT('ID1','3D')
);
#363=SHAPE_REPRESENTATION('Document',(#365,#388),#361);
#364=SHAPE_REPRESENTATION('Block 01',(#366,#387),#362);
#365=AXIS2_PLACEMENT_3D('',#417,#389,#390);
#366=AXIS2_PLACEMENT_3D('',#418,#391,#392);
#367=AXIS2_PLACEMENT_3D('',#419,#393,$);
#368=AXIS2_PLACEMENT_3D('',#420,#394,$);
#369=AXIS2_PLACEMENT_3D('',#421,#395,$);
#370=AXIS2_PLACEMENT_3D('',#422,#396,$);
#371=AXIS2_PLACEMENT_3D('',#423,#397,$);
#372=AXIS2_PLACEMENT_3D('',#424,#398,$);
#373=AXIS2_PLACEMENT_3D('',#425,#399,$);
#374=AXIS2_PLACEMENT_3D('',#426,#400,$);
#375=AXIS2_PLACEMENT_3D('',#427,#401,$);
#376=AXIS2_PLACEMENT_3D('',#428,#402,$);
#377=AXIS2_PLACEMENT_3D('',#493,#403,$);
#378=AXIS2_PLACEMENT_3D('',#494,#404,$);
#379=AXIS2_PLACEMENT_3D('',#495,#405,$);
#380=AXIS2_PLACEMENT_3D('',#496,#406,$);
#381=AXIS2_PLACEMENT_3D('',#497,#407,$);
#382=AXIS2_PLACEMENT_3D('',#498,#408,$);
#383=AXIS2_PLACEMENT_3D('',#499,#409,$);
#384=AXIS2_PLACEMENT_3D('',#500,#410,$);
#385=AXIS2_PLACEMENT_3D('',#501,#411,$);
#386=AXIS2_PLACEMENT_3D('',#502,#412,$);
#387=AXIS2_PLACEMENT_3D('',#567,#413,#414);
#388=AXIS2_PLACEMENT_3D('',#568,#415,#416);
#389=DIRECTION('',(0.,0.,1.));
#390=DIRECTION('',(1.,0.,0.));
#391=DIRECTION('',(0.,0.,1.));
#392=DIRECTION('',(1.,0.,0.));
#393=DIRECTION('',(0.,0.,-1.));
#394=DIRECTION('',(0.,0.,1.));
#395=DIRECTION('',(0.,-1.,0.));
#396=DIRECTION('',(-1.,0.,0.));
#397=DIRECTION('',(1.,0.,0.));
#398=DIRECTION('',(0.,1.,0.));
#399=DIRECTION('',(0.,1.,0.));
#400=DIRECTION('',(0.,-1.,0.));
#401=DIRECTION('',(1.,0.,0.));
#402=DIRECTION('',(-1.,0.,0.));
#403=DIRECTION('',(0.,0.,1.));
#404=DIRECTION('',(0.,0.,-1.));
#405=DIRECTION('',(0.,-1.,0.));
#406=DIRECTION('',(-1.,0.,0.));
#407=DIRECTION('',(0.,1.,0.));
#408=DIRECTION('',(1.,0.,0.));
#409=DIRECTION('',(0.,-1.,0.));
#410=DIRECTION('',(0.,1.,0.));
#411=DIRECTION('',(-1.,0.,0.));
#412=DIRECTION('',(1.,0.,0.));
#413=DIRECTION('',(0.,0.,1.));
#414=DIRECTION('',(1.,0.,0.));
#415=DIRECTION('',(0.,0.,1.));
#416=DIRECTION('',(1.,0.,0.));
#417=CARTESIAN_POINT('',(0.,0.,0.));
#418=CARTESIAN_POINT('',(0.,0.,0.));
#419=CARTESIAN_POINT('',(-30.75,-19.19,-30.));
#420=CARTESIAN_POINT('',(-30.75,0.19,-1.77635683940025E-15));
#421=CARTESIAN_POINT('',(-34.7024,-5.,-48.0012));
#422=CARTESIAN_POINT('',(-4.99999999999999,-39.3036,-63.0012));
#423=CARTESIAN_POINT('',(7.105427357601E-15,-39.3036,-63.0012));
#424=CARTESIAN_POINT('',(-34.7024,4.44089209850063E-16,-48.0012));
#425=CARTESIAN_POINT('',(-8.5,-14.,-48.0012));
#426=CARTESIAN_POINT('',(-8.5,-19.,-48.0012));
#427=CARTESIAN_POINT('',(45.,-19.5012,3.0012));
#428=CARTESIAN_POINT('',(-30.,-5.5012,-33.0012));
#429=CARTESIAN_POINT('',(0.,-14.,-30.));
#430=CARTESIAN_POINT('',(45.,-14.,-30.));
#431=CARTESIAN_POINT('',(45.,-19.,-30.));
#432=CARTESIAN_POINT('',(-5.,-19.,-30.));
#433=CARTESIAN_POINT('',(-4.99999999999999,-5.,-30.));
#434=CARTESIAN_POINT('',(-30.,-5.,-30.));
#435=CARTESIAN_POINT('',(-30.,4.44089209850063E-16,-30.));
#436=CARTESIAN_POINT('',(0.,1.55431223447522E-15,-30.));
#437=CARTESIAN_POINT('',(0.,0.,0.));
#438=CARTESIAN_POINT('',(-30.,4.44089209850063E-16,-3.5527136788005E-15));
#439=CARTESIAN_POINT('',(-30.,-5.,-3.5527136788005E-15));
#440=CARTESIAN_POINT('',(-5.,-5.,-5.32907051820075E-15));
#441=CARTESIAN_POINT('',(-5.,-19.,-3.5527136788005E-15));
#442=CARTESIAN_POINT('',(45.,-19.,-3.5527136788005E-15));
#443=CARTESIAN_POINT('',(45.,-14.,-3.5527136788005E-15));
#444=CARTESIAN_POINT('',(1.77635683940025E-14,-14.,3.5527136788005E-15));
#445=CARTESIAN_POINT('',(0.,-14.,-30.));
#446=CARTESIAN_POINT('',(0.,1.55431223447522E-15,-30.));
#447=CARTESIAN_POINT('',(45.,-14.,-30.));
#448=CARTESIAN_POINT('',(0.,-14.,-30.));
#449=CARTESIAN_POINT('',(45.,-19.,-30.));
#450=CARTESIAN_POINT('',(45.,-14.,-30.));
#451=CARTESIAN_POINT('',(-5.,-19.,-30.));
#452=CARTESIAN_POINT('',(45.,-19.,-30.));
#453=CARTESIAN_POINT('',(-4.99999999999999,-5.,-30.));
#454=CARTESIAN_POINT('',(-5.,-19.,-30.));
#455=CARTESIAN_POINT('',(-30.,-5.,-30.));
#456=CARTESIAN_POINT('',(-4.99999999999999,-5.,-30.));
#457=CARTESIAN_POINT('',(-30.,4.44089209850063E-16,-30.));
#458=CARTESIAN_POINT('',(-30.,-5.,-30.));
#459=CARTESIAN_POINT('',(0.,1.55431223447522E-15,-30.));
#460=CARTESIAN_POINT('',(-30.,4.44089209850063E-16,-30.));
#461=CARTESIAN_POINT('',(0.,0.,0.));
#462=CARTESIAN_POINT('',(1.77635683940025E-14,-14.,3.5527136788005E-15));
#463=CARTESIAN_POINT('',(-30.,4.44089209850063E-16,-3.5527136788005E-15));
#464=CARTESIAN_POINT('',(0.,0.,0.));
#465=CARTESIAN_POINT('',(-30.,-5.,-3.5527136788005E-15));
#466=CARTESIAN_POINT('',(-30.,4.44089209850063E-16,-3.5527136788005E-15));
#467=CARTESIAN_POINT('',(-5.,-5.,-5.32907051820075E-15));
#468=CARTESIAN_POINT('',(-30.,-5.,-3.5527136788005E-15));
#469=CARTESIAN_POINT('',(-5.,-19.,-3.5527136788005E-15));
#470=CARTESIAN_POINT('',(-5.,-5.,-5.32907051820075E-15));
#471=CARTESIAN_POINT('',(45.,-19.,-3.5527136788005E-15));
#472=CARTESIAN_POINT('',(-5.,-19.,-3.5527136788005E-15));
#473=CARTESIAN_POINT('',(45.,-14.,-3.5527136788005E-15));
#474=CARTESIAN_POINT('',(45.,-19.,-3.5527136788005E-15));
#475=CARTESIAN_POINT('',(1.77635683940025E-14,-14.,3.5527136788005E-15));
#476=CARTESIAN_POINT('',(45.,-14.,-3.5527136788005E-15));
#477=CARTESIAN_POINT('',(-30.,-5.,-30.));
#478=CARTESIAN_POINT('',(-30.,-5.,-3.5527136788005E-15));
#479=CARTESIAN_POINT('',(-5.,-5.,-5.32907051820075E-15));
#480=CARTESIAN_POINT('',(-4.99999999999999,-5.,-30.));
#481=CARTESIAN_POINT('',(-5.,-19.,-30.));
#482=CARTESIAN_POINT('',(-5.,-19.,-3.5527136788005E-15));
#483=CARTESIAN_POINT('',(0.,-14.,-30.));
#484=CARTESIAN_POINT('',(1.77635683940025E-14,-14.,3.5527136788005E-15));
#485=CARTESIAN_POINT('',(0.,1.55431223447522E-15,-30.));
#486=CARTESIAN_POINT('',(0.,0.,0.));
#487=CARTESIAN_POINT('',(-30.,4.44089209850063E-16,-30.));
#488=CARTESIAN_POINT('',(-30.,4.44089209850063E-16,-3.5527136788005E-15));
#489=CARTESIAN_POINT('',(45.,-14.,-30.));
#490=CARTESIAN_POINT('',(45.,-14.,-3.5527136788005E-15));
#491=CARTESIAN_POINT('',(45.,-19.,-3.5527136788005E-15));
#492=CARTESIAN_POINT('',(45.,-19.,-30.));
#493=CARTESIAN_POINT('',(-30.75,-12.69,-1.06581410364015E-14));
#494=CARTESIAN_POINT('',(-30.75,-12.69,-30.));
#495=CARTESIAN_POINT('',(-3.49999999999999,-12.5,-48.0012));
#496=CARTESIAN_POINT('',(3.5527136788005E-15,-32.8036,9.00359999999999));
#497=CARTESIAN_POINT('',(-35.7024,6.5,-48.0012));
#498=CARTESIAN_POINT('',(5.,-32.8036,9.00359999999999));
#499=CARTESIAN_POINT('',(-35.7024,1.5,-48.0012));
#500=CARTESIAN_POINT('',(-3.49999999999999,-7.5,-48.0012));
#501=CARTESIAN_POINT('',(-30.,0.998799999999999,-33.0012));
#502=CARTESIAN_POINT('',(45.,-13.0012,3.0012));
#503=CARTESIAN_POINT('',(5.,6.5,-8.88178419700125E-15));
#504=CARTESIAN_POINT('',(5.,-7.5,-5.32907051820075E-15));
#505=CARTESIAN_POINT('',(45.,-7.5,-3.5527136788005E-15));
#506=CARTESIAN_POINT('',(45.,-12.5,-3.5527136788005E-15));
#507=CARTESIAN_POINT('',(1.77635683940025E-14,-12.5,-8.88178419700125E-15));
#508=CARTESIAN_POINT('',(3.5527136788005E-15,1.5,-8.88178419700125E-15));
#509=CARTESIAN_POINT('',(-30.,1.5,-3.5527136788005E-15));
#510=CARTESIAN_POINT('',(-30.,6.5,-3.5527136788005E-15));
#511=CARTESIAN_POINT('',(5.,-7.5,-30.));
#512=CARTESIAN_POINT('',(45.,-7.5,-30.));
#513=CARTESIAN_POINT('',(45.,-12.5,-30.));
#514=CARTESIAN_POINT('',(1.77635683940025E-14,-12.5,-30.));
#515=CARTESIAN_POINT('',(1.77635683940025E-14,1.5,-30.));
#516=CARTESIAN_POINT('',(-30.,1.5,-30.));
#517=CARTESIAN_POINT('',(-30.,6.5,-30.));
#518=CARTESIAN_POINT('',(5.,6.5,-30.));
#519=CARTESIAN_POINT('',(5.,6.5,-8.88178419700125E-15));
#520=CARTESIAN_POINT('',(-30.,6.5,-3.5527136788005E-15));
#521=CARTESIAN_POINT('',(5.,-7.5,-5.32907051820075E-15));
#522=CARTESIAN_POINT('',(5.,6.5,-8.88178419700125E-15));
#523=CARTESIAN_POINT('',(45.,-7.5,-3.5527136788005E-15));
#524=CARTESIAN_POINT('',(5.,-7.5,-5.32907051820075E-15));
#525=CARTESIAN_POINT('',(45.,-12.5,-3.5527136788005E-15));
#526=CARTESIAN_POINT('',(45.,-7.5,-3.5527136788005E-15));
#527=CARTESIAN_POINT('',(1.77635683940025E-14,-12.5,-8.88178419700125E-15));
#528=CARTESIAN_POINT('',(45.,-12.5,-3.5527136788005E-15));
#529=CARTESIAN_POINT('',(3.5527136788005E-15,1.5,-8.88178419700125E-15));
#530=CARTESIAN_POINT('',(1.77635683940025E-14,-12.5,-8.88178419700125E-15));
#531=CARTESIAN_POINT('',(-30.,1.5,-3.5527136788005E-15));
#532=CARTESIAN_POINT('',(3.5527136788005E-15,1.5,-8.88178419700125E-15));
#533=CARTESIAN_POINT('',(-30.,6.5,-3.5527136788005E-15));
#534=CARTESIAN_POINT('',(-30.,1.5,-3.5527136788005E-15));
#535=CARTESIAN_POINT('',(5.,-7.5,-30.));
#536=CARTESIAN_POINT('',(5.,6.5,-30.));
#537=CARTESIAN_POINT('',(45.,-7.5,-30.));
#538=CARTESIAN_POINT('',(5.,-7.5,-30.));
#539=CARTESIAN_POINT('',(45.,-12.5,-30.));
#540=CARTESIAN_POINT('',(45.,-7.5,-30.));
#541=CARTESIAN_POINT('',(1.77635683940025E-14,-12.5,-30.));
#542=CARTESIAN_POINT('',(45.,-12.5,-30.));
#543=CARTESIAN_POINT('',(1.77635683940025E-14,1.5,-30.));
#544=CARTESIAN_POINT('',(1.77635683940025E-14,-12.5,-30.));
#545=CARTESIAN_POINT('',(-30.,1.5,-30.));
#546=CARTESIAN_POINT('',(1.77635683940025E-14,1.5,-30.));
#547=CARTESIAN_POINT('',(-30.,6.5,-30.));
#548=CARTESIAN_POINT('',(-30.,1.5,-30.));
#549=CARTESIAN_POINT('',(5.,6.5,-30.));
#550=CARTESIAN_POINT('',(-30.,6.5,-30.));
#551=CARTESIAN_POINT('',(45.,-12.5,-3.5527136788005E-15));
#552=CARTESIAN_POINT('',(45.,-12.5,-30.));
#553=CARTESIAN_POINT('',(1.77635683940025E-14,-12.5,-8.88178419700125E-15));
#554=CARTESIAN_POINT('',(1.77635683940025E-14,-12.5,-30.));
#555=CARTESIAN_POINT('',(1.77635683940025E-14,1.5,-30.));
#556=CARTESIAN_POINT('',(3.5527136788005E-15,1.5,-8.88178419700125E-15));
#557=CARTESIAN_POINT('',(-30.,6.5,-30.));
#558=CARTESIAN_POINT('',(-30.,6.5,-3.5527136788005E-15));
#559=CARTESIAN_POINT('',(5.,6.5,-8.88178419700125E-15));
#560=CARTESIAN_POINT('',(5.,6.5,-30.));
#561=CARTESIAN_POINT('',(5.,-7.5,-30.));
#562=CARTESIAN_POINT('',(5.,-7.5,-5.32907051820075E-15));
#563=CARTESIAN_POINT('',(-30.,1.5,-30.));
#564=CARTESIAN_POINT('',(-30.,1.5,-3.5527136788005E-15));
#565=CARTESIAN_POINT('',(45.,-7.5,-30.));
#566=CARTESIAN_POINT('',(45.,-7.5,-3.5527136788005E-15));
#567=CARTESIAN_POINT('',(0.,0.,0.));
#568=CARTESIAN_POINT('',(30.,-4.44089209850063E-16,15.));
ENDSEC;
END-ISO-10303-21;
