ISO-10303-21;
HEADER;
FILE_DESCRIPTION((''),'2;1');
FILE_NAME('6080138','2012-05-29T',('AndreasKeweloh'),(''),
'PRO/ENGINEER BY PARAMETRIC TECHNOLOGY CORPORATION, 2012060',
'PRO/ENGINEER BY PARAMETRIC TECHNOLOGY CORPORATION, 2012060','');
FILE_SCHEMA(('CONFIG_CONTROL_DESIGN'));
ENDSEC;
DATA;
#1=DIRECTION('',(0.E0,1.E0,0.E0));
#2=VECTOR('',#1,8.E0);
#3=CARTESIAN_POINT('',(2.65E1,0.E0,-1.5E3));
#4=LINE('',#3,#2);
#5=CARTESIAN_POINT('',(2.45E1,8.E0,-1.5E3));
#6=DIRECTION('',(0.E0,0.E0,1.E0));
#7=DIRECTION('',(1.E0,0.E0,0.E0));
#8=AXIS2_PLACEMENT_3D('',#5,#6,#7);
#10=DIRECTION('',(-1.E0,0.E0,0.E0));
#11=VECTOR('',#10,4.9E1);
#12=CARTESIAN_POINT('',(2.45E1,1.E1,-1.5E3));
#13=LINE('',#12,#11);
#14=CARTESIAN_POINT('',(-2.45E1,8.E0,-1.5E3));
#15=DIRECTION('',(0.E0,0.E0,1.E0));
#16=DIRECTION('',(0.E0,1.E0,0.E0));
#17=AXIS2_PLACEMENT_3D('',#14,#15,#16);
#19=DIRECTION('',(0.E0,-1.E0,0.E0));
#20=VECTOR('',#19,8.E0);
#21=CARTESIAN_POINT('',(-2.65E1,8.E0,-1.5E3));
#22=LINE('',#21,#20);
#23=DIRECTION('',(1.E0,0.E0,0.E0));
#24=VECTOR('',#23,1.E0);
#25=CARTESIAN_POINT('',(-2.65E1,0.E0,-1.5E3));
#26=LINE('',#25,#24);
#27=DIRECTION('',(0.E0,1.E0,0.E0));
#28=VECTOR('',#27,8.E0);
#29=CARTESIAN_POINT('',(-2.55E1,0.E0,-1.5E3));
#30=LINE('',#29,#28);
#31=CARTESIAN_POINT('',(-2.45E1,8.E0,-1.5E3));
#32=DIRECTION('',(0.E0,0.E0,-1.E0));
#33=DIRECTION('',(-1.E0,0.E0,0.E0));
#34=AXIS2_PLACEMENT_3D('',#31,#32,#33);
#36=DIRECTION('',(1.E0,0.E0,0.E0));
#37=VECTOR('',#36,4.9E1);
#38=CARTESIAN_POINT('',(-2.45E1,9.E0,-1.5E3));
#39=LINE('',#38,#37);
#40=CARTESIAN_POINT('',(2.45E1,8.E0,-1.5E3));
#41=DIRECTION('',(0.E0,0.E0,-1.E0));
#42=DIRECTION('',(0.E0,1.E0,0.E0));
#43=AXIS2_PLACEMENT_3D('',#40,#41,#42);
#45=DIRECTION('',(0.E0,-1.E0,0.E0));
#46=VECTOR('',#45,8.E0);
#47=CARTESIAN_POINT('',(2.55E1,8.E0,-1.5E3));
#48=LINE('',#47,#46);
#49=DIRECTION('',(1.E0,0.E0,0.E0));
#50=VECTOR('',#49,1.E0);
#51=CARTESIAN_POINT('',(2.55E1,0.E0,-1.5E3));
#52=LINE('',#51,#50);
#53=DIRECTION('',(0.E0,0.E0,1.E0));
#54=VECTOR('',#53,3.E3);
#55=CARTESIAN_POINT('',(2.65E1,0.E0,-1.5E3));
#56=LINE('',#55,#54);
#57=DIRECTION('',(0.E0,0.E0,1.E0));
#58=VECTOR('',#57,3.E3);
#59=CARTESIAN_POINT('',(2.55E1,0.E0,-1.5E3));
#60=LINE('',#59,#58);
#61=DIRECTION('',(0.E0,0.E0,1.E0));
#62=VECTOR('',#61,3.E3);
#63=CARTESIAN_POINT('',(2.55E1,8.E0,-1.5E3));
#64=LINE('',#63,#62);
#65=DIRECTION('',(0.E0,0.E0,1.E0));
#66=VECTOR('',#65,3.E3);
#67=CARTESIAN_POINT('',(2.45E1,9.E0,-1.5E3));
#68=LINE('',#67,#66);
#69=DIRECTION('',(0.E0,0.E0,1.E0));
#70=VECTOR('',#69,3.E3);
#71=CARTESIAN_POINT('',(-2.45E1,9.E0,-1.5E3));
#72=LINE('',#71,#70);
#73=CARTESIAN_POINT('',(0.E0,9.E0,1.3E3));
#74=DIRECTION('',(0.E0,-1.E0,0.E0));
#75=DIRECTION('',(1.E0,0.E0,0.E0));
#76=AXIS2_PLACEMENT_3D('',#73,#74,#75);
#78=CARTESIAN_POINT('',(0.E0,9.E0,1.3E3));
#79=DIRECTION('',(0.E0,-1.E0,0.E0));
#80=DIRECTION('',(-1.E0,0.E0,0.E0));
#81=AXIS2_PLACEMENT_3D('',#78,#79,#80);
#83=CARTESIAN_POINT('',(0.E0,9.E0,-1.3E3));
#84=DIRECTION('',(0.E0,1.E0,0.E0));
#85=DIRECTION('',(1.E0,0.E0,0.E0));
#86=AXIS2_PLACEMENT_3D('',#83,#84,#85);
#88=CARTESIAN_POINT('',(0.E0,9.E0,-1.3E3));
#89=DIRECTION('',(0.E0,1.E0,0.E0));
#90=DIRECTION('',(-1.E0,0.E0,0.E0));
#91=AXIS2_PLACEMENT_3D('',#88,#89,#90);
#93=CARTESIAN_POINT('',(0.E0,9.E0,0.E0));
#94=DIRECTION('',(0.E0,-1.E0,0.E0));
#95=DIRECTION('',(1.E0,0.E0,0.E0));
#96=AXIS2_PLACEMENT_3D('',#93,#94,#95);
#98=CARTESIAN_POINT('',(0.E0,9.E0,0.E0));
#99=DIRECTION('',(0.E0,-1.E0,0.E0));
#100=DIRECTION('',(-1.E0,0.E0,0.E0));
#101=AXIS2_PLACEMENT_3D('',#98,#99,#100);
#103=DIRECTION('',(0.E0,0.E0,1.E0));
#104=VECTOR('',#103,3.E3);
#105=CARTESIAN_POINT('',(-2.55E1,8.E0,-1.5E3));
#106=LINE('',#105,#104);
#107=DIRECTION('',(0.E0,0.E0,1.E0));
#108=VECTOR('',#107,3.E3);
#109=CARTESIAN_POINT('',(-2.55E1,0.E0,-1.5E3));
#110=LINE('',#109,#108);
#111=DIRECTION('',(0.E0,0.E0,1.E0));
#112=VECTOR('',#111,3.E3);
#113=CARTESIAN_POINT('',(-2.65E1,0.E0,-1.5E3));
#114=LINE('',#113,#112);
#115=DIRECTION('',(0.E0,0.E0,1.E0));
#116=VECTOR('',#115,3.E3);
#117=CARTESIAN_POINT('',(-2.65E1,8.E0,-1.5E3));
#118=LINE('',#117,#116);
#119=DIRECTION('',(0.E0,0.E0,1.E0));
#120=VECTOR('',#119,3.E3);
#121=CARTESIAN_POINT('',(-2.45E1,1.E1,-1.5E3));
#122=LINE('',#121,#120);
#123=DIRECTION('',(0.E0,0.E0,1.E0));
#124=VECTOR('',#123,3.E3);
#125=CARTESIAN_POINT('',(2.45E1,1.E1,-1.5E3));
#126=LINE('',#125,#124);
#127=CARTESIAN_POINT('',(0.E0,1.E1,1.3E3));
#128=DIRECTION('',(0.E0,-1.E0,0.E0));
#129=DIRECTION('',(1.E0,0.E0,0.E0));
#130=AXIS2_PLACEMENT_3D('',#127,#128,#129);
#132=CARTESIAN_POINT('',(0.E0,1.E1,1.3E3));
#133=DIRECTION('',(0.E0,-1.E0,0.E0));
#134=DIRECTION('',(-1.E0,0.E0,0.E0));
#135=AXIS2_PLACEMENT_3D('',#132,#133,#134);
#137=CARTESIAN_POINT('',(0.E0,1.E1,-1.3E3));
#138=DIRECTION('',(0.E0,1.E0,0.E0));
#139=DIRECTION('',(1.E0,0.E0,0.E0));
#140=AXIS2_PLACEMENT_3D('',#137,#138,#139);
#142=CARTESIAN_POINT('',(0.E0,1.E1,-1.3E3));
#143=DIRECTION('',(0.E0,1.E0,0.E0));
#144=DIRECTION('',(-1.E0,0.E0,0.E0));
#145=AXIS2_PLACEMENT_3D('',#142,#143,#144);
#147=CARTESIAN_POINT('',(0.E0,1.E1,0.E0));
#148=DIRECTION('',(0.E0,-1.E0,0.E0));
#149=DIRECTION('',(1.E0,0.E0,0.E0));
#150=AXIS2_PLACEMENT_3D('',#147,#148,#149);
#152=CARTESIAN_POINT('',(0.E0,1.E1,0.E0));
#153=DIRECTION('',(0.E0,-1.E0,0.E0));
#154=DIRECTION('',(-1.E0,0.E0,0.E0));
#155=AXIS2_PLACEMENT_3D('',#152,#153,#154);
#157=DIRECTION('',(0.E0,0.E0,1.E0));
#158=VECTOR('',#157,3.E3);
#159=CARTESIAN_POINT('',(2.65E1,8.E0,-1.5E3));
#160=LINE('',#159,#158);
#161=DIRECTION('',(0.E0,1.E0,0.E0));
#162=VECTOR('',#161,8.E0);
#163=CARTESIAN_POINT('',(2.65E1,0.E0,1.5E3));
#164=LINE('',#163,#162);
#165=DIRECTION('',(1.E0,0.E0,0.E0));
#166=VECTOR('',#165,1.E0);
#167=CARTESIAN_POINT('',(2.55E1,0.E0,1.5E3));
#168=LINE('',#167,#166);
#169=DIRECTION('',(0.E0,-1.E0,0.E0));
#170=VECTOR('',#169,8.E0);
#171=CARTESIAN_POINT('',(2.55E1,8.E0,1.5E3));
#172=LINE('',#171,#170);
#173=CARTESIAN_POINT('',(2.45E1,8.E0,1.5E3));
#174=DIRECTION('',(0.E0,0.E0,-1.E0));
#175=DIRECTION('',(0.E0,1.E0,0.E0));
#176=AXIS2_PLACEMENT_3D('',#173,#174,#175);
#178=DIRECTION('',(1.E0,0.E0,0.E0));
#179=VECTOR('',#178,4.9E1);
#180=CARTESIAN_POINT('',(-2.45E1,9.E0,1.5E3));
#181=LINE('',#180,#179);
#182=CARTESIAN_POINT('',(-2.45E1,8.E0,1.5E3));
#183=DIRECTION('',(0.E0,0.E0,-1.E0));
#184=DIRECTION('',(-1.E0,0.E0,0.E0));
#185=AXIS2_PLACEMENT_3D('',#182,#183,#184);
#187=DIRECTION('',(0.E0,1.E0,0.E0));
#188=VECTOR('',#187,8.E0);
#189=CARTESIAN_POINT('',(-2.55E1,0.E0,1.5E3));
#190=LINE('',#189,#188);
#191=DIRECTION('',(1.E0,0.E0,0.E0));
#192=VECTOR('',#191,1.E0);
#193=CARTESIAN_POINT('',(-2.65E1,0.E0,1.5E3));
#194=LINE('',#193,#192);
#195=DIRECTION('',(0.E0,-1.E0,0.E0));
#196=VECTOR('',#195,8.E0);
#197=CARTESIAN_POINT('',(-2.65E1,8.E0,1.5E3));
#198=LINE('',#197,#196);
#199=CARTESIAN_POINT('',(-2.45E1,8.E0,1.5E3));
#200=DIRECTION('',(0.E0,0.E0,1.E0));
#201=DIRECTION('',(0.E0,1.E0,0.E0));
#202=AXIS2_PLACEMENT_3D('',#199,#200,#201);
#204=DIRECTION('',(-1.E0,0.E0,0.E0));
#205=VECTOR('',#204,4.9E1);
#206=CARTESIAN_POINT('',(2.45E1,1.E1,1.5E3));
#207=LINE('',#206,#205);
#208=CARTESIAN_POINT('',(2.45E1,8.E0,1.5E3));
#209=DIRECTION('',(0.E0,0.E0,1.E0));
#210=DIRECTION('',(1.E0,0.E0,0.E0));
#211=AXIS2_PLACEMENT_3D('',#208,#209,#210);
#213=DIRECTION('',(0.E0,-1.E0,0.E0));
#214=VECTOR('',#213,1.E0);
#215=CARTESIAN_POINT('',(6.15E0,1.E1,1.3E3));
#216=LINE('',#215,#214);
#217=DIRECTION('',(0.E0,-1.E0,0.E0));
#218=VECTOR('',#217,1.E0);
#219=CARTESIAN_POINT('',(-6.15E0,1.E1,1.3E3));
#220=LINE('',#219,#218);
#221=DIRECTION('',(0.E0,-1.E0,0.E0));
#222=VECTOR('',#221,1.E0);
#223=CARTESIAN_POINT('',(6.15E0,1.E1,-1.3E3));
#224=LINE('',#223,#222);
#225=DIRECTION('',(0.E0,-1.E0,0.E0));
#226=VECTOR('',#225,1.E0);
#227=CARTESIAN_POINT('',(-6.15E0,1.E1,-1.3E3));
#228=LINE('',#227,#226);
#229=DIRECTION('',(0.E0,-1.E0,0.E0));
#230=VECTOR('',#229,1.E0);
#231=CARTESIAN_POINT('',(6.15E0,1.E1,0.E0));
#232=LINE('',#231,#230);
#233=DIRECTION('',(0.E0,-1.E0,0.E0));
#234=VECTOR('',#233,1.E0);
#235=CARTESIAN_POINT('',(-6.15E0,1.E1,0.E0));
#236=LINE('',#235,#234);
#237=CARTESIAN_POINT('',(2.65E1,0.E0,-1.5E3));
#238=CARTESIAN_POINT('',(2.65E1,8.E0,-1.5E3));
#239=VERTEX_POINT('',#237);
#240=VERTEX_POINT('',#238);
#241=CARTESIAN_POINT('',(2.45E1,1.E1,-1.5E3));
#242=VERTEX_POINT('',#241);
#243=CARTESIAN_POINT('',(-2.45E1,1.E1,-1.5E3));
#244=VERTEX_POINT('',#243);
#245=CARTESIAN_POINT('',(-2.65E1,8.E0,-1.5E3));
#246=VERTEX_POINT('',#245);
#247=CARTESIAN_POINT('',(-2.65E1,0.E0,-1.5E3));
#248=VERTEX_POINT('',#247);
#249=CARTESIAN_POINT('',(-2.55E1,0.E0,-1.5E3));
#250=VERTEX_POINT('',#249);
#251=CARTESIAN_POINT('',(-2.55E1,8.E0,-1.5E3));
#252=VERTEX_POINT('',#251);
#253=CARTESIAN_POINT('',(-2.45E1,9.E0,-1.5E3));
#254=VERTEX_POINT('',#253);
#255=CARTESIAN_POINT('',(2.45E1,9.E0,-1.5E3));
#256=VERTEX_POINT('',#255);
#257=CARTESIAN_POINT('',(2.55E1,8.E0,-1.5E3));
#258=VERTEX_POINT('',#257);
#259=CARTESIAN_POINT('',(2.55E1,0.E0,-1.5E3));
#260=VERTEX_POINT('',#259);
#261=CARTESIAN_POINT('',(2.65E1,0.E0,1.5E3));
#262=CARTESIAN_POINT('',(2.65E1,8.E0,1.5E3));
#263=VERTEX_POINT('',#261);
#264=VERTEX_POINT('',#262);
#265=CARTESIAN_POINT('',(2.45E1,1.E1,1.5E3));
#266=VERTEX_POINT('',#265);
#267=CARTESIAN_POINT('',(-2.45E1,1.E1,1.5E3));
#268=VERTEX_POINT('',#267);
#269=CARTESIAN_POINT('',(-2.65E1,8.E0,1.5E3));
#270=VERTEX_POINT('',#269);
#271=CARTESIAN_POINT('',(-2.65E1,0.E0,1.5E3));
#272=VERTEX_POINT('',#271);
#273=CARTESIAN_POINT('',(-2.55E1,0.E0,1.5E3));
#274=VERTEX_POINT('',#273);
#275=CARTESIAN_POINT('',(-2.55E1,8.E0,1.5E3));
#276=VERTEX_POINT('',#275);
#277=CARTESIAN_POINT('',(-2.45E1,9.E0,1.5E3));
#278=VERTEX_POINT('',#277);
#279=CARTESIAN_POINT('',(2.45E1,9.E0,1.5E3));
#280=VERTEX_POINT('',#279);
#281=CARTESIAN_POINT('',(2.55E1,8.E0,1.5E3));
#282=VERTEX_POINT('',#281);
#283=CARTESIAN_POINT('',(2.55E1,0.E0,1.5E3));
#284=VERTEX_POINT('',#283);
#285=CARTESIAN_POINT('',(6.15E0,1.E1,1.3E3));
#286=CARTESIAN_POINT('',(-6.15E0,1.E1,1.3E3));
#287=VERTEX_POINT('',#285);
#288=VERTEX_POINT('',#286);
#289=CARTESIAN_POINT('',(6.15E0,9.E0,1.3E3));
#290=CARTESIAN_POINT('',(-6.15E0,9.E0,1.3E3));
#291=VERTEX_POINT('',#289);
#292=VERTEX_POINT('',#290);
#293=CARTESIAN_POINT('',(6.15E0,1.E1,-1.3E3));
#294=CARTESIAN_POINT('',(6.15E0,9.E0,-1.3E3));
#295=VERTEX_POINT('',#293);
#296=VERTEX_POINT('',#294);
#297=CARTESIAN_POINT('',(-6.15E0,1.E1,-1.3E3));
#298=CARTESIAN_POINT('',(-6.15E0,9.E0,-1.3E3));
#299=VERTEX_POINT('',#297);
#300=VERTEX_POINT('',#298);
#301=CARTESIAN_POINT('',(6.15E0,1.E1,0.E0));
#302=CARTESIAN_POINT('',(-6.15E0,1.E1,0.E0));
#303=VERTEX_POINT('',#301);
#304=VERTEX_POINT('',#302);
#305=CARTESIAN_POINT('',(6.15E0,9.E0,0.E0));
#306=CARTESIAN_POINT('',(-6.15E0,9.E0,0.E0));
#307=VERTEX_POINT('',#305);
#308=VERTEX_POINT('',#306);
#309=CARTESIAN_POINT('',(0.E0,0.E0,-1.5E3));
#310=DIRECTION('',(0.E0,0.E0,1.E0));
#311=DIRECTION('',(1.E0,0.E0,0.E0));
#312=AXIS2_PLACEMENT_3D('',#309,#310,#311);
#313=PLANE('',#312);
#315=ORIENTED_EDGE('',*,*,#314,.T.);
#317=ORIENTED_EDGE('',*,*,#316,.T.);
#319=ORIENTED_EDGE('',*,*,#318,.T.);
#321=ORIENTED_EDGE('',*,*,#320,.T.);
#323=ORIENTED_EDGE('',*,*,#322,.T.);
#325=ORIENTED_EDGE('',*,*,#324,.T.);
#327=ORIENTED_EDGE('',*,*,#326,.T.);
#329=ORIENTED_EDGE('',*,*,#328,.T.);
#331=ORIENTED_EDGE('',*,*,#330,.T.);
#333=ORIENTED_EDGE('',*,*,#332,.T.);
#335=ORIENTED_EDGE('',*,*,#334,.T.);
#337=ORIENTED_EDGE('',*,*,#336,.T.);
#338=EDGE_LOOP('',(#315,#317,#319,#321,#323,#325,#327,#329,#331,#333,#335,
#337));
#339=FACE_OUTER_BOUND('',#338,.F.);
#340=ADVANCED_FACE('',(#339),#313,.F.);
#341=CARTESIAN_POINT('',(2.65E1,0.E0,-1.5E3));
#342=DIRECTION('',(1.E0,0.E0,0.E0));
#343=DIRECTION('',(0.E0,1.E0,0.E0));
#344=AXIS2_PLACEMENT_3D('',#341,#342,#343);
#345=PLANE('',#344);
#346=ORIENTED_EDGE('',*,*,#314,.F.);
#348=ORIENTED_EDGE('',*,*,#347,.T.);
#350=ORIENTED_EDGE('',*,*,#349,.T.);
#352=ORIENTED_EDGE('',*,*,#351,.F.);
#353=EDGE_LOOP('',(#346,#348,#350,#352));
#354=FACE_OUTER_BOUND('',#353,.F.);
#355=ADVANCED_FACE('',(#354),#345,.T.);
#356=CARTESIAN_POINT('',(2.55E1,0.E0,-1.5E3));
#357=DIRECTION('',(0.E0,-1.E0,0.E0));
#358=DIRECTION('',(1.E0,0.E0,0.E0));
#359=AXIS2_PLACEMENT_3D('',#356,#357,#358);
#360=PLANE('',#359);
#361=ORIENTED_EDGE('',*,*,#336,.F.);
#363=ORIENTED_EDGE('',*,*,#362,.T.);
#365=ORIENTED_EDGE('',*,*,#364,.T.);
#366=ORIENTED_EDGE('',*,*,#347,.F.);
#367=EDGE_LOOP('',(#361,#363,#365,#366));
#368=FACE_OUTER_BOUND('',#367,.F.);
#369=ADVANCED_FACE('',(#368),#360,.T.);
#370=CARTESIAN_POINT('',(2.55E1,8.E0,-1.5E3));
#371=DIRECTION('',(-1.E0,0.E0,0.E0));
#372=DIRECTION('',(0.E0,-1.E0,0.E0));
#373=AXIS2_PLACEMENT_3D('',#370,#371,#372);
#374=PLANE('',#373);
#375=ORIENTED_EDGE('',*,*,#334,.F.);
#377=ORIENTED_EDGE('',*,*,#376,.T.);
#379=ORIENTED_EDGE('',*,*,#378,.T.);
#380=ORIENTED_EDGE('',*,*,#362,.F.);
#381=EDGE_LOOP('',(#375,#377,#379,#380));
#382=FACE_OUTER_BOUND('',#381,.F.);
#383=ADVANCED_FACE('',(#382),#374,.T.);
#384=CARTESIAN_POINT('',(2.45E1,8.E0,-1.5E3));
#385=DIRECTION('',(0.E0,0.E0,1.E0));
#386=DIRECTION('',(1.E0,0.E0,0.E0));
#387=AXIS2_PLACEMENT_3D('',#384,#385,#386);
#388=CYLINDRICAL_SURFACE('',#387,1.E0);
#389=ORIENTED_EDGE('',*,*,#332,.F.);
#391=ORIENTED_EDGE('',*,*,#390,.T.);
#393=ORIENTED_EDGE('',*,*,#392,.T.);
#394=ORIENTED_EDGE('',*,*,#376,.F.);
#395=EDGE_LOOP('',(#389,#391,#393,#394));
#396=FACE_OUTER_BOUND('',#395,.F.);
#397=ADVANCED_FACE('',(#396),#388,.F.);
#398=CARTESIAN_POINT('',(-2.45E1,9.E0,-1.5E3));
#399=DIRECTION('',(0.E0,-1.E0,0.E0));
#400=DIRECTION('',(1.E0,0.E0,0.E0));
#401=AXIS2_PLACEMENT_3D('',#398,#399,#400);
#402=PLANE('',#401);
#403=ORIENTED_EDGE('',*,*,#330,.F.);
#405=ORIENTED_EDGE('',*,*,#404,.T.);
#407=ORIENTED_EDGE('',*,*,#406,.T.);
#408=ORIENTED_EDGE('',*,*,#390,.F.);
#409=EDGE_LOOP('',(#403,#405,#407,#408));
#410=FACE_OUTER_BOUND('',#409,.F.);
#412=ORIENTED_EDGE('',*,*,#411,.T.);
#414=ORIENTED_EDGE('',*,*,#413,.T.);
#415=EDGE_LOOP('',(#412,#414));
#416=FACE_BOUND('',#415,.F.);
#418=ORIENTED_EDGE('',*,*,#417,.F.);
#420=ORIENTED_EDGE('',*,*,#419,.F.);
#421=EDGE_LOOP('',(#418,#420));
#422=FACE_BOUND('',#421,.F.);
#424=ORIENTED_EDGE('',*,*,#423,.T.);
#426=ORIENTED_EDGE('',*,*,#425,.T.);
#427=EDGE_LOOP('',(#424,#426));
#428=FACE_BOUND('',#427,.F.);
#429=ADVANCED_FACE('',(#410,#416,#422,#428),#402,.T.);
#430=CARTESIAN_POINT('',(-2.45E1,8.E0,-1.5E3));
#431=DIRECTION('',(0.E0,0.E0,1.E0));
#432=DIRECTION('',(1.E0,0.E0,0.E0));
#433=AXIS2_PLACEMENT_3D('',#430,#431,#432);
#434=CYLINDRICAL_SURFACE('',#433,1.E0);
#435=ORIENTED_EDGE('',*,*,#328,.F.);
#437=ORIENTED_EDGE('',*,*,#436,.T.);
#439=ORIENTED_EDGE('',*,*,#438,.T.);
#440=ORIENTED_EDGE('',*,*,#404,.F.);
#441=EDGE_LOOP('',(#435,#437,#439,#440));
#442=FACE_OUTER_BOUND('',#441,.F.);
#443=ADVANCED_FACE('',(#442),#434,.F.);
#444=CARTESIAN_POINT('',(-2.55E1,0.E0,-1.5E3));
#445=DIRECTION('',(1.E0,0.E0,0.E0));
#446=DIRECTION('',(0.E0,1.E0,0.E0));
#447=AXIS2_PLACEMENT_3D('',#444,#445,#446);
#448=PLANE('',#447);
#449=ORIENTED_EDGE('',*,*,#326,.F.);
#451=ORIENTED_EDGE('',*,*,#450,.T.);
#453=ORIENTED_EDGE('',*,*,#452,.T.);
#454=ORIENTED_EDGE('',*,*,#436,.F.);
#455=EDGE_LOOP('',(#449,#451,#453,#454));
#456=FACE_OUTER_BOUND('',#455,.F.);
#457=ADVANCED_FACE('',(#456),#448,.T.);
#458=CARTESIAN_POINT('',(-2.65E1,0.E0,-1.5E3));
#459=DIRECTION('',(0.E0,-1.E0,0.E0));
#460=DIRECTION('',(1.E0,0.E0,0.E0));
#461=AXIS2_PLACEMENT_3D('',#458,#459,#460);
#462=PLANE('',#461);
#463=ORIENTED_EDGE('',*,*,#324,.F.);
#465=ORIENTED_EDGE('',*,*,#464,.T.);
#467=ORIENTED_EDGE('',*,*,#466,.T.);
#468=ORIENTED_EDGE('',*,*,#450,.F.);
#469=EDGE_LOOP('',(#463,#465,#467,#468));
#470=FACE_OUTER_BOUND('',#469,.F.);
#471=ADVANCED_FACE('',(#470),#462,.T.);
#472=CARTESIAN_POINT('',(-2.65E1,8.E0,-1.5E3));
#473=DIRECTION('',(-1.E0,0.E0,0.E0));
#474=DIRECTION('',(0.E0,-1.E0,0.E0));
#475=AXIS2_PLACEMENT_3D('',#472,#473,#474);
#476=PLANE('',#475);
#477=ORIENTED_EDGE('',*,*,#322,.F.);
#479=ORIENTED_EDGE('',*,*,#478,.T.);
#481=ORIENTED_EDGE('',*,*,#480,.T.);
#482=ORIENTED_EDGE('',*,*,#464,.F.);
#483=EDGE_LOOP('',(#477,#479,#481,#482));
#484=FACE_OUTER_BOUND('',#483,.F.);
#485=ADVANCED_FACE('',(#484),#476,.T.);
#486=CARTESIAN_POINT('',(-2.45E1,8.E0,-1.5E3));
#487=DIRECTION('',(0.E0,0.E0,1.E0));
#488=DIRECTION('',(1.E0,0.E0,0.E0));
#489=AXIS2_PLACEMENT_3D('',#486,#487,#488);
#490=CYLINDRICAL_SURFACE('',#489,2.E0);
#491=ORIENTED_EDGE('',*,*,#320,.F.);
#493=ORIENTED_EDGE('',*,*,#492,.T.);
#495=ORIENTED_EDGE('',*,*,#494,.T.);
#496=ORIENTED_EDGE('',*,*,#478,.F.);
#497=EDGE_LOOP('',(#491,#493,#495,#496));
#498=FACE_OUTER_BOUND('',#497,.F.);
#499=ADVANCED_FACE('',(#498),#490,.T.);
#500=CARTESIAN_POINT('',(2.45E1,1.E1,-1.5E3));
#501=DIRECTION('',(0.E0,1.E0,0.E0));
#502=DIRECTION('',(-1.E0,0.E0,0.E0));
#503=AXIS2_PLACEMENT_3D('',#500,#501,#502);
#504=PLANE('',#503);
#505=ORIENTED_EDGE('',*,*,#318,.F.);
#507=ORIENTED_EDGE('',*,*,#506,.T.);
#509=ORIENTED_EDGE('',*,*,#508,.T.);
#510=ORIENTED_EDGE('',*,*,#492,.F.);
#511=EDGE_LOOP('',(#505,#507,#509,#510));
#512=FACE_OUTER_BOUND('',#511,.F.);
#514=ORIENTED_EDGE('',*,*,#513,.F.);
#516=ORIENTED_EDGE('',*,*,#515,.F.);
#517=EDGE_LOOP('',(#514,#516));
#518=FACE_BOUND('',#517,.F.);
#520=ORIENTED_EDGE('',*,*,#519,.T.);
#522=ORIENTED_EDGE('',*,*,#521,.T.);
#523=EDGE_LOOP('',(#520,#522));
#524=FACE_BOUND('',#523,.F.);
#526=ORIENTED_EDGE('',*,*,#525,.F.);
#528=ORIENTED_EDGE('',*,*,#527,.F.);
#529=EDGE_LOOP('',(#526,#528));
#530=FACE_BOUND('',#529,.F.);
#531=ADVANCED_FACE('',(#512,#518,#524,#530),#504,.T.);
#532=CARTESIAN_POINT('',(2.45E1,8.E0,-1.5E3));
#533=DIRECTION('',(0.E0,0.E0,1.E0));
#534=DIRECTION('',(1.E0,0.E0,0.E0));
#535=AXIS2_PLACEMENT_3D('',#532,#533,#534);
#536=CYLINDRICAL_SURFACE('',#535,2.E0);
#537=ORIENTED_EDGE('',*,*,#316,.F.);
#538=ORIENTED_EDGE('',*,*,#351,.T.);
#540=ORIENTED_EDGE('',*,*,#539,.T.);
#541=ORIENTED_EDGE('',*,*,#506,.F.);
#542=EDGE_LOOP('',(#537,#538,#540,#541));
#543=FACE_OUTER_BOUND('',#542,.F.);
#544=ADVANCED_FACE('',(#543),#536,.T.);
#545=CARTESIAN_POINT('',(0.E0,0.E0,1.5E3));
#546=DIRECTION('',(0.E0,0.E0,1.E0));
#547=DIRECTION('',(1.E0,0.E0,0.E0));
#548=AXIS2_PLACEMENT_3D('',#545,#546,#547);
#549=PLANE('',#548);
#550=ORIENTED_EDGE('',*,*,#349,.F.);
#551=ORIENTED_EDGE('',*,*,#364,.F.);
#552=ORIENTED_EDGE('',*,*,#378,.F.);
#553=ORIENTED_EDGE('',*,*,#392,.F.);
#554=ORIENTED_EDGE('',*,*,#406,.F.);
#555=ORIENTED_EDGE('',*,*,#438,.F.);
#556=ORIENTED_EDGE('',*,*,#452,.F.);
#557=ORIENTED_EDGE('',*,*,#466,.F.);
#558=ORIENTED_EDGE('',*,*,#480,.F.);
#559=ORIENTED_EDGE('',*,*,#494,.F.);
#560=ORIENTED_EDGE('',*,*,#508,.F.);
#561=ORIENTED_EDGE('',*,*,#539,.F.);
#562=EDGE_LOOP('',(#550,#551,#552,#553,#554,#555,#556,#557,#558,#559,#560,
#561));
#563=FACE_OUTER_BOUND('',#562,.F.);
#564=ADVANCED_FACE('',(#563),#549,.T.);
#565=CARTESIAN_POINT('',(0.E0,1.E1,1.3E3));
#566=DIRECTION('',(0.E0,-1.E0,0.E0));
#567=DIRECTION('',(1.E0,0.E0,0.E0));
#568=AXIS2_PLACEMENT_3D('',#565,#566,#567);
#569=CYLINDRICAL_SURFACE('',#568,6.15E0);
#570=ORIENTED_EDGE('',*,*,#513,.T.);
#572=ORIENTED_EDGE('',*,*,#571,.T.);
#573=ORIENTED_EDGE('',*,*,#411,.F.);
#575=ORIENTED_EDGE('',*,*,#574,.F.);
#576=EDGE_LOOP('',(#570,#572,#573,#575));
#577=FACE_OUTER_BOUND('',#576,.F.);
#578=ADVANCED_FACE('',(#577),#569,.F.);
#579=CARTESIAN_POINT('',(0.E0,1.E1,1.3E3));
#580=DIRECTION('',(0.E0,-1.E0,0.E0));
#581=DIRECTION('',(1.E0,0.E0,0.E0));
#582=AXIS2_PLACEMENT_3D('',#579,#580,#581);
#583=CYLINDRICAL_SURFACE('',#582,6.15E0);
#584=ORIENTED_EDGE('',*,*,#515,.T.);
#585=ORIENTED_EDGE('',*,*,#574,.T.);
#586=ORIENTED_EDGE('',*,*,#413,.F.);
#587=ORIENTED_EDGE('',*,*,#571,.F.);
#588=EDGE_LOOP('',(#584,#585,#586,#587));
#589=FACE_OUTER_BOUND('',#588,.F.);
#590=ADVANCED_FACE('',(#589),#583,.F.);
#591=CARTESIAN_POINT('',(0.E0,1.E1,-1.3E3));
#592=DIRECTION('',(0.E0,1.E0,0.E0));
#593=DIRECTION('',(1.E0,0.E0,0.E0));
#594=AXIS2_PLACEMENT_3D('',#591,#592,#593);
#595=CYLINDRICAL_SURFACE('',#594,6.15E0);
#597=ORIENTED_EDGE('',*,*,#596,.T.);
#598=ORIENTED_EDGE('',*,*,#417,.T.);
#600=ORIENTED_EDGE('',*,*,#599,.F.);
#601=ORIENTED_EDGE('',*,*,#519,.F.);
#602=EDGE_LOOP('',(#597,#598,#600,#601));
#603=FACE_OUTER_BOUND('',#602,.F.);
#604=ADVANCED_FACE('',(#603),#595,.F.);
#605=CARTESIAN_POINT('',(0.E0,1.E1,-1.3E3));
#606=DIRECTION('',(0.E0,1.E0,0.E0));
#607=DIRECTION('',(1.E0,0.E0,0.E0));
#608=AXIS2_PLACEMENT_3D('',#605,#606,#607);
#609=CYLINDRICAL_SURFACE('',#608,6.15E0);
#610=ORIENTED_EDGE('',*,*,#596,.F.);
#611=ORIENTED_EDGE('',*,*,#521,.F.);
#612=ORIENTED_EDGE('',*,*,#599,.T.);
#613=ORIENTED_EDGE('',*,*,#419,.T.);
#614=EDGE_LOOP('',(#610,#611,#612,#613));
#615=FACE_OUTER_BOUND('',#614,.F.);
#616=ADVANCED_FACE('',(#615),#609,.F.);
#617=CARTESIAN_POINT('',(0.E0,1.E1,0.E0));
#618=DIRECTION('',(0.E0,-1.E0,0.E0));
#619=DIRECTION('',(1.E0,0.E0,0.E0));
#620=AXIS2_PLACEMENT_3D('',#617,#618,#619);
#621=CYLINDRICAL_SURFACE('',#620,6.15E0);
#622=ORIENTED_EDGE('',*,*,#525,.T.);
#624=ORIENTED_EDGE('',*,*,#623,.T.);
#625=ORIENTED_EDGE('',*,*,#423,.F.);
#627=ORIENTED_EDGE('',*,*,#626,.F.);
#628=EDGE_LOOP('',(#622,#624,#625,#627));
#629=FACE_OUTER_BOUND('',#628,.F.);
#630=ADVANCED_FACE('',(#629),#621,.F.);
#631=CARTESIAN_POINT('',(0.E0,1.E1,0.E0));
#632=DIRECTION('',(0.E0,-1.E0,0.E0));
#633=DIRECTION('',(1.E0,0.E0,0.E0));
#634=AXIS2_PLACEMENT_3D('',#631,#632,#633);
#635=CYLINDRICAL_SURFACE('',#634,6.15E0);
#636=ORIENTED_EDGE('',*,*,#527,.T.);
#637=ORIENTED_EDGE('',*,*,#626,.T.);
#638=ORIENTED_EDGE('',*,*,#425,.F.);
#639=ORIENTED_EDGE('',*,*,#623,.F.);
#640=EDGE_LOOP('',(#636,#637,#638,#639));
#641=FACE_OUTER_BOUND('',#640,.F.);
#642=ADVANCED_FACE('',(#641),#635,.F.);
#643=CLOSED_SHELL('',(#340,#355,#369,#383,#397,#429,#443,#457,#471,#485,#499,
#531,#544,#564,#578,#590,#604,#616,#630,#642));
#644=MANIFOLD_SOLID_BREP('',#643);
#646=DIMENSIONAL_EXPONENTS(0.E0,0.E0,0.E0,0.E0,0.E0,0.E0,0.E0);
#648=PLANE_ANGLE_MEASURE_WITH_UNIT(PLANE_ANGLE_MEASURE(1.745329251994E-2),#647);
#649=(CONVERSION_BASED_UNIT('DEGREE',#648)NAMED_UNIT(*)PLANE_ANGLE_UNIT());
#651=UNCERTAINTY_MEASURE_WITH_UNIT(LENGTH_MEASURE(3.000364774771E-1),#645,
'closure',
'Maximum model space distance between geometric entities at asserted connectivities');
#652=(GEOMETRIC_REPRESENTATION_CONTEXT(3)GLOBAL_UNCERTAINTY_ASSIGNED_CONTEXT((
#651))GLOBAL_UNIT_ASSIGNED_CONTEXT((#645,#649,#650))REPRESENTATION_CONTEXT
('ID1','3'));
#654=APPLICATION_CONTEXT(
'CONFIGURATION CONTROLLED 3D DESIGNS OF MECHANICAL PARTS AND ASSEMBLIES');
#655=APPLICATION_PROTOCOL_DEFINITION('international standard',
'config_control_design',1994,#654);
#656=DESIGN_CONTEXT('',#654,'design');
#657=MECHANICAL_CONTEXT('',#654,'mechanical');
#658=PRODUCT('6080138','6080138','NOT SPECIFIED',(#657));
#659=PRODUCT_DEFINITION_FORMATION_WITH_SPECIFIED_SOURCE('2','LAST_VERSION',#658,
.MADE.);
#663=PRODUCT_CATEGORY('part','');
#664=PRODUCT_RELATED_PRODUCT_CATEGORY('detail','',(#658));
#665=PRODUCT_CATEGORY_RELATIONSHIP('','',#663,#664);
#666=SECURITY_CLASSIFICATION_LEVEL('unclassified');
#667=SECURITY_CLASSIFICATION('','',#666);
#668=CC_DESIGN_SECURITY_CLASSIFICATION(#667,(#659));
#669=APPROVAL_STATUS('approved');
#670=APPROVAL(#669,'');
#671=CC_DESIGN_APPROVAL(#670,(#667,#659,#660));
#672=CALENDAR_DATE(112,29,5);
#673=COORDINATED_UNIVERSAL_TIME_OFFSET(2,0,.AHEAD.);
#674=LOCAL_TIME(11,53,5.E0,#673);
#675=DATE_AND_TIME(#672,#674);
#676=APPROVAL_DATE_TIME(#675,#670);
#677=DATE_TIME_ROLE('creation_date');
#678=CC_DESIGN_DATE_AND_TIME_ASSIGNMENT(#675,#677,(#660));
#679=DATE_TIME_ROLE('classification_date');
#680=CC_DESIGN_DATE_AND_TIME_ASSIGNMENT(#675,#679,(#667));
#681=PERSON('UNSPECIFIED','UNSPECIFIED',$,$,$,$);
#682=ORGANIZATION('UNSPECIFIED','UNSPECIFIED','UNSPECIFIED');
#683=PERSON_AND_ORGANIZATION(#681,#682);
#684=APPROVAL_ROLE('approver');
#685=APPROVAL_PERSON_ORGANIZATION(#683,#670,#684);
#686=PERSON_AND_ORGANIZATION_ROLE('creator');
#687=CC_DESIGN_PERSON_AND_ORGANIZATION_ASSIGNMENT(#683,#686,(#659,#660));
#688=PERSON_AND_ORGANIZATION_ROLE('design_supplier');
#689=CC_DESIGN_PERSON_AND_ORGANIZATION_ASSIGNMENT(#683,#688,(#659));
#690=PERSON_AND_ORGANIZATION_ROLE('classification_officer');
#691=CC_DESIGN_PERSON_AND_ORGANIZATION_ASSIGNMENT(#683,#690,(#667));
#692=PERSON_AND_ORGANIZATION_ROLE('design_owner');
#693=CC_DESIGN_PERSON_AND_ORGANIZATION_ASSIGNMENT(#683,#692,(#658));
#9=CIRCLE('',#8,2.E0);
#18=CIRCLE('',#17,2.E0);
#35=CIRCLE('',#34,1.E0);
#44=CIRCLE('',#43,1.E0);
#77=CIRCLE('',#76,6.15E0);
#82=CIRCLE('',#81,6.15E0);
#87=CIRCLE('',#86,6.15E0);
#92=CIRCLE('',#91,6.15E0);
#97=CIRCLE('',#96,6.15E0);
#102=CIRCLE('',#101,6.15E0);
#131=CIRCLE('',#130,6.15E0);
#136=CIRCLE('',#135,6.15E0);
#141=CIRCLE('',#140,6.15E0);
#146=CIRCLE('',#145,6.15E0);
#151=CIRCLE('',#150,6.15E0);
#156=CIRCLE('',#155,6.15E0);
#177=CIRCLE('',#176,1.E0);
#186=CIRCLE('',#185,1.E0);
#203=CIRCLE('',#202,2.E0);
#212=CIRCLE('',#211,2.E0);
#314=EDGE_CURVE('',#239,#240,#4,.T.);
#316=EDGE_CURVE('',#240,#242,#9,.T.);
#318=EDGE_CURVE('',#242,#244,#13,.T.);
#320=EDGE_CURVE('',#244,#246,#18,.T.);
#322=EDGE_CURVE('',#246,#248,#22,.T.);
#324=EDGE_CURVE('',#248,#250,#26,.T.);
#326=EDGE_CURVE('',#250,#252,#30,.T.);
#328=EDGE_CURVE('',#252,#254,#35,.T.);
#330=EDGE_CURVE('',#254,#256,#39,.T.);
#332=EDGE_CURVE('',#256,#258,#44,.T.);
#334=EDGE_CURVE('',#258,#260,#48,.T.);
#336=EDGE_CURVE('',#260,#239,#52,.T.);
#347=EDGE_CURVE('',#239,#263,#56,.T.);
#349=EDGE_CURVE('',#263,#264,#164,.T.);
#351=EDGE_CURVE('',#240,#264,#160,.T.);
#362=EDGE_CURVE('',#260,#284,#60,.T.);
#364=EDGE_CURVE('',#284,#263,#168,.T.);
#376=EDGE_CURVE('',#258,#282,#64,.T.);
#378=EDGE_CURVE('',#282,#284,#172,.T.);
#390=EDGE_CURVE('',#256,#280,#68,.T.);
#392=EDGE_CURVE('',#280,#282,#177,.T.);
#404=EDGE_CURVE('',#254,#278,#72,.T.);
#406=EDGE_CURVE('',#278,#280,#181,.T.);
#411=EDGE_CURVE('',#291,#292,#77,.T.);
#413=EDGE_CURVE('',#292,#291,#82,.T.);
#417=EDGE_CURVE('',#296,#300,#87,.T.);
#419=EDGE_CURVE('',#300,#296,#92,.T.);
#423=EDGE_CURVE('',#307,#308,#97,.T.);
#425=EDGE_CURVE('',#308,#307,#102,.T.);
#436=EDGE_CURVE('',#252,#276,#106,.T.);
#438=EDGE_CURVE('',#276,#278,#186,.T.);
#450=EDGE_CURVE('',#250,#274,#110,.T.);
#452=EDGE_CURVE('',#274,#276,#190,.T.);
#464=EDGE_CURVE('',#248,#272,#114,.T.);
#466=EDGE_CURVE('',#272,#274,#194,.T.);
#478=EDGE_CURVE('',#246,#270,#118,.T.);
#480=EDGE_CURVE('',#270,#272,#198,.T.);
#492=EDGE_CURVE('',#244,#268,#122,.T.);
#494=EDGE_CURVE('',#268,#270,#203,.T.);
#506=EDGE_CURVE('',#242,#266,#126,.T.);
#508=EDGE_CURVE('',#266,#268,#207,.T.);
#513=EDGE_CURVE('',#287,#288,#131,.T.);
#515=EDGE_CURVE('',#288,#287,#136,.T.);
#519=EDGE_CURVE('',#295,#299,#141,.T.);
#521=EDGE_CURVE('',#299,#295,#146,.T.);
#525=EDGE_CURVE('',#303,#304,#151,.T.);
#527=EDGE_CURVE('',#304,#303,#156,.T.);
#539=EDGE_CURVE('',#264,#266,#212,.T.);
#571=EDGE_CURVE('',#288,#292,#220,.T.);
#574=EDGE_CURVE('',#287,#291,#216,.T.);
#596=EDGE_CURVE('',#295,#296,#224,.T.);
#599=EDGE_CURVE('',#299,#300,#228,.T.);
#623=EDGE_CURVE('',#304,#308,#236,.T.);
#626=EDGE_CURVE('',#303,#307,#232,.T.);
#645=(LENGTH_UNIT()NAMED_UNIT(*)SI_UNIT(.MILLI.,.METRE.));
#647=(NAMED_UNIT(*)PLANE_ANGLE_UNIT()SI_UNIT($,.RADIAN.));
#650=(NAMED_UNIT(*)SI_UNIT($,.STERADIAN.)SOLID_ANGLE_UNIT());
#653=ADVANCED_BREP_SHAPE_REPRESENTATION('',(#644),#652);
#660=PRODUCT_DEFINITION('design','',#659,#656);
#661=PRODUCT_DEFINITION_SHAPE('','SHAPE FOR 6080138.',#660);
#662=SHAPE_DEFINITION_REPRESENTATION(#661,#653);
ENDSEC;
END-ISO-10303-21;
