ISO-10303-21;
HEADER;
FILE_DESCRIPTION((''),'2;1');
FILE_NAME('6354106','2013-01-26T',('AndreasKeweloh'),(''),
'PRO/ENGINEER BY PARAMETRIC TECHNOLOGY CORPORATION, 2012360',
'PRO/ENGINEER BY PARAMETRIC TECHNOLOGY CORPORATION, 2012360','');
FILE_SCHEMA(('CONFIG_CONTROL_DESIGN'));
ENDSEC;
DATA;
#1=DIRECTION('',(0.E0,1.E0,0.E0));
#2=VECTOR('',#1,2.15E1);
#3=CARTESIAN_POINT('',(-3.E1,-2.15E1,0.E0));
#4=LINE('',#3,#2);
#5=DIRECTION('',(0.E0,0.E0,1.E0));
#6=VECTOR('',#5,5.E1);
#7=CARTESIAN_POINT('',(-3.E1,0.E0,0.E0));
#8=LINE('',#7,#6);
#9=DIRECTION('',(0.E0,-1.E0,0.E0));
#10=VECTOR('',#9,2.15E1);
#11=CARTESIAN_POINT('',(-3.E1,0.E0,5.E1));
#12=LINE('',#11,#10);
#13=DIRECTION('',(0.E0,0.E0,1.E0));
#14=VECTOR('',#13,5.E1);
#15=CARTESIAN_POINT('',(-3.E1,-2.15E1,0.E0));
#16=LINE('',#15,#14);
#17=DIRECTION('',(1.E0,0.E0,0.E0));
#18=VECTOR('',#17,6.E1);
#19=CARTESIAN_POINT('',(-3.E1,0.E0,0.E0));
#20=LINE('',#19,#18);
#21=CARTESIAN_POINT('',(-1.3E1,0.E0,2.5E1));
#22=DIRECTION('',(0.E0,-1.E0,0.E0));
#23=DIRECTION('',(0.E0,0.E0,-1.E0));
#24=AXIS2_PLACEMENT_3D('',#21,#22,#23);
#26=CARTESIAN_POINT('',(-1.3E1,0.E0,2.5E1));
#27=DIRECTION('',(0.E0,-1.E0,0.E0));
#28=DIRECTION('',(0.E0,0.E0,1.E0));
#29=AXIS2_PLACEMENT_3D('',#26,#27,#28);
#31=DIRECTION('',(1.E0,0.E0,0.E0));
#32=VECTOR('',#31,6.E1);
#33=CARTESIAN_POINT('',(-3.E1,0.E0,5.E1));
#34=LINE('',#33,#32);
#35=DIRECTION('',(0.E0,1.E0,0.E0));
#36=VECTOR('',#35,6.5E0);
#37=CARTESIAN_POINT('',(3.E1,-6.5E0,5.E1));
#38=LINE('',#37,#36);
#39=DIRECTION('',(1.E0,0.E0,0.E0));
#40=VECTOR('',#39,6.5E0);
#41=CARTESIAN_POINT('',(-3.E1,-2.15E1,5.E1));
#42=LINE('',#41,#40);
#43=DIRECTION('',(0.E0,1.E0,0.E0));
#44=VECTOR('',#43,6.5E0);
#45=CARTESIAN_POINT('',(3.E1,-6.5E0,0.E0));
#46=LINE('',#45,#44);
#47=DIRECTION('',(0.E0,0.E0,1.E0));
#48=VECTOR('',#47,5.E1);
#49=CARTESIAN_POINT('',(3.E1,0.E0,0.E0));
#50=LINE('',#49,#48);
#51=DIRECTION('',(-1.E0,0.E0,0.E0));
#52=VECTOR('',#51,5.35E1);
#53=CARTESIAN_POINT('',(3.E1,-6.5E0,0.E0));
#54=LINE('',#53,#52);
#55=DIRECTION('',(0.E0,0.E0,1.E0));
#56=VECTOR('',#55,5.E1);
#57=CARTESIAN_POINT('',(-2.35E1,-6.5E0,0.E0));
#58=LINE('',#57,#56);
#59=DIRECTION('',(1.E0,0.E0,0.E0));
#60=VECTOR('',#59,5.35E1);
#61=CARTESIAN_POINT('',(-2.35E1,-6.5E0,5.E1));
#62=LINE('',#61,#60);
#63=DIRECTION('',(0.E0,0.E0,1.E0));
#64=VECTOR('',#63,5.E1);
#65=CARTESIAN_POINT('',(3.E1,-6.5E0,0.E0));
#66=LINE('',#65,#64);
#67=CARTESIAN_POINT('',(-1.3E1,-6.5E0,2.5E1));
#68=DIRECTION('',(0.E0,1.E0,0.E0));
#69=DIRECTION('',(0.E0,0.E0,1.E0));
#70=AXIS2_PLACEMENT_3D('',#67,#68,#69);
#72=CARTESIAN_POINT('',(-1.3E1,-6.5E0,2.5E1));
#73=DIRECTION('',(0.E0,1.E0,0.E0));
#74=DIRECTION('',(0.E0,0.E0,-1.E0));
#75=AXIS2_PLACEMENT_3D('',#72,#73,#74);
#77=DIRECTION('',(0.E0,1.E0,0.E0));
#78=VECTOR('',#77,1.5E1);
#79=CARTESIAN_POINT('',(-2.35E1,-2.15E1,5.E1));
#80=LINE('',#79,#78);
#81=DIRECTION('',(0.E0,-1.E0,0.E0));
#82=VECTOR('',#81,1.5E1);
#83=CARTESIAN_POINT('',(-2.35E1,-6.5E0,0.E0));
#84=LINE('',#83,#82);
#85=DIRECTION('',(1.E0,0.E0,0.E0));
#86=VECTOR('',#85,6.5E0);
#87=CARTESIAN_POINT('',(-3.E1,-2.15E1,0.E0));
#88=LINE('',#87,#86);
#89=DIRECTION('',(0.E0,0.E0,1.E0));
#90=VECTOR('',#89,5.E1);
#91=CARTESIAN_POINT('',(-2.35E1,-2.15E1,0.E0));
#92=LINE('',#91,#90);
#93=DIRECTION('',(0.E0,-1.E0,0.E0));
#94=VECTOR('',#93,6.5E0);
#95=CARTESIAN_POINT('',(-1.3E1,0.E0,1.95E1));
#96=LINE('',#95,#94);
#97=DIRECTION('',(0.E0,-1.E0,0.E0));
#98=VECTOR('',#97,6.5E0);
#99=CARTESIAN_POINT('',(-1.3E1,0.E0,3.05E1));
#100=LINE('',#99,#98);
#101=CARTESIAN_POINT('',(-1.3E1,0.E0,3.05E1));
#102=CARTESIAN_POINT('',(-1.3E1,0.E0,1.95E1));
#103=VERTEX_POINT('',#101);
#104=VERTEX_POINT('',#102);
#105=CARTESIAN_POINT('',(-1.3E1,-6.5E0,3.05E1));
#106=VERTEX_POINT('',#105);
#107=CARTESIAN_POINT('',(-3.E1,-2.15E1,0.E0));
#108=CARTESIAN_POINT('',(-3.E1,-2.15E1,5.E1));
#109=VERTEX_POINT('',#107);
#110=VERTEX_POINT('',#108);
#111=CARTESIAN_POINT('',(-2.35E1,-2.15E1,0.E0));
#112=VERTEX_POINT('',#111);
#113=CARTESIAN_POINT('',(-1.3E1,-6.5E0,1.95E1));
#114=VERTEX_POINT('',#113);
#115=CARTESIAN_POINT('',(3.E1,0.E0,0.E0));
#116=CARTESIAN_POINT('',(3.E1,0.E0,5.E1));
#117=VERTEX_POINT('',#115);
#118=VERTEX_POINT('',#116);
#119=CARTESIAN_POINT('',(-2.35E1,-2.15E1,5.E1));
#120=VERTEX_POINT('',#119);
#121=CARTESIAN_POINT('',(3.E1,-6.5E0,5.E1));
#122=VERTEX_POINT('',#121);
#123=CARTESIAN_POINT('',(3.E1,-6.5E0,0.E0));
#124=VERTEX_POINT('',#123);
#125=CARTESIAN_POINT('',(-3.E1,0.E0,0.E0));
#126=CARTESIAN_POINT('',(-3.E1,0.E0,5.E1));
#127=VERTEX_POINT('',#125);
#128=VERTEX_POINT('',#126);
#129=CARTESIAN_POINT('',(-2.35E1,-6.5E0,0.E0));
#130=CARTESIAN_POINT('',(-2.35E1,-6.5E0,5.E1));
#131=VERTEX_POINT('',#129);
#132=VERTEX_POINT('',#130);
#133=CARTESIAN_POINT('',(-3.E1,-1.152052073963E-14,5.E1));
#134=DIRECTION('',(1.E0,0.E0,0.E0));
#135=DIRECTION('',(0.E0,1.E0,0.E0));
#136=AXIS2_PLACEMENT_3D('',#133,#134,#135);
#137=PLANE('',#136);
#139=ORIENTED_EDGE('',*,*,#138,.T.);
#141=ORIENTED_EDGE('',*,*,#140,.T.);
#143=ORIENTED_EDGE('',*,*,#142,.T.);
#145=ORIENTED_EDGE('',*,*,#144,.F.);
#146=EDGE_LOOP('',(#139,#141,#143,#145));
#147=FACE_OUTER_BOUND('',#146,.F.);
#148=ADVANCED_FACE('',(#147),#137,.F.);
#149=CARTESIAN_POINT('',(-2.1E1,-9.E0,0.E0));
#150=DIRECTION('',(0.E0,0.E0,1.E0));
#151=DIRECTION('',(1.E0,0.E0,0.E0));
#152=AXIS2_PLACEMENT_3D('',#149,#150,#151);
#153=PLANE('',#152);
#155=ORIENTED_EDGE('',*,*,#154,.F.);
#156=ORIENTED_EDGE('',*,*,#138,.F.);
#158=ORIENTED_EDGE('',*,*,#157,.T.);
#160=ORIENTED_EDGE('',*,*,#159,.F.);
#162=ORIENTED_EDGE('',*,*,#161,.F.);
#164=ORIENTED_EDGE('',*,*,#163,.T.);
#165=EDGE_LOOP('',(#155,#156,#158,#160,#162,#164));
#166=FACE_OUTER_BOUND('',#165,.F.);
#167=ADVANCED_FACE('',(#166),#153,.F.);
#168=CARTESIAN_POINT('',(3.E1,-1.152052073963E-14,5.E1));
#169=DIRECTION('',(0.E0,-1.E0,0.E0));
#170=DIRECTION('',(0.E0,0.E0,-1.E0));
#171=AXIS2_PLACEMENT_3D('',#168,#169,#170);
#172=PLANE('',#171);
#174=ORIENTED_EDGE('',*,*,#173,.F.);
#175=ORIENTED_EDGE('',*,*,#140,.F.);
#176=ORIENTED_EDGE('',*,*,#154,.T.);
#178=ORIENTED_EDGE('',*,*,#177,.T.);
#179=EDGE_LOOP('',(#174,#175,#176,#178));
#180=FACE_OUTER_BOUND('',#179,.F.);
#182=ORIENTED_EDGE('',*,*,#181,.F.);
#184=ORIENTED_EDGE('',*,*,#183,.F.);
#185=EDGE_LOOP('',(#182,#184));
#186=FACE_BOUND('',#185,.F.);
#187=ADVANCED_FACE('',(#180,#186),#172,.F.);
#188=CARTESIAN_POINT('',(-2.1E1,-9.E0,5.E1));
#189=DIRECTION('',(0.E0,0.E0,1.E0));
#190=DIRECTION('',(1.E0,0.E0,0.E0));
#191=AXIS2_PLACEMENT_3D('',#188,#189,#190);
#192=PLANE('',#191);
#193=ORIENTED_EDGE('',*,*,#173,.T.);
#195=ORIENTED_EDGE('',*,*,#194,.F.);
#197=ORIENTED_EDGE('',*,*,#196,.F.);
#199=ORIENTED_EDGE('',*,*,#198,.F.);
#201=ORIENTED_EDGE('',*,*,#200,.F.);
#202=ORIENTED_EDGE('',*,*,#142,.F.);
#203=EDGE_LOOP('',(#193,#195,#197,#199,#201,#202));
#204=FACE_OUTER_BOUND('',#203,.F.);
#205=ADVANCED_FACE('',(#204),#192,.T.);
#206=CARTESIAN_POINT('',(3.E1,-1.152052073963E-14,5.E1));
#207=DIRECTION('',(1.E0,0.E0,0.E0));
#208=DIRECTION('',(0.E0,0.E0,-1.E0));
#209=AXIS2_PLACEMENT_3D('',#206,#207,#208);
#210=PLANE('',#209);
#211=ORIENTED_EDGE('',*,*,#163,.F.);
#213=ORIENTED_EDGE('',*,*,#212,.T.);
#214=ORIENTED_EDGE('',*,*,#194,.T.);
#215=ORIENTED_EDGE('',*,*,#177,.F.);
#216=EDGE_LOOP('',(#211,#213,#214,#215));
#217=FACE_OUTER_BOUND('',#216,.F.);
#218=ADVANCED_FACE('',(#217),#210,.T.);
#219=CARTESIAN_POINT('',(3.E1,-6.5E0,5.E1));
#220=DIRECTION('',(0.E0,-1.E0,0.E0));
#221=DIRECTION('',(0.E0,0.E0,-1.E0));
#222=AXIS2_PLACEMENT_3D('',#219,#220,#221);
#223=PLANE('',#222);
#224=ORIENTED_EDGE('',*,*,#161,.T.);
#226=ORIENTED_EDGE('',*,*,#225,.T.);
#227=ORIENTED_EDGE('',*,*,#196,.T.);
#228=ORIENTED_EDGE('',*,*,#212,.F.);
#229=EDGE_LOOP('',(#224,#226,#227,#228));
#230=FACE_OUTER_BOUND('',#229,.F.);
#232=ORIENTED_EDGE('',*,*,#231,.F.);
#234=ORIENTED_EDGE('',*,*,#233,.F.);
#235=EDGE_LOOP('',(#232,#234));
#236=FACE_BOUND('',#235,.F.);
#237=ADVANCED_FACE('',(#230,#236),#223,.T.);
#238=CARTESIAN_POINT('',(-2.35E1,-1.047161817276E-14,5.E1));
#239=DIRECTION('',(1.E0,0.E0,0.E0));
#240=DIRECTION('',(0.E0,1.E0,0.E0));
#241=AXIS2_PLACEMENT_3D('',#238,#239,#240);
#242=PLANE('',#241);
#243=ORIENTED_EDGE('',*,*,#198,.T.);
#244=ORIENTED_EDGE('',*,*,#225,.F.);
#245=ORIENTED_EDGE('',*,*,#159,.T.);
#247=ORIENTED_EDGE('',*,*,#246,.T.);
#248=EDGE_LOOP('',(#243,#244,#245,#247));
#249=FACE_OUTER_BOUND('',#248,.F.);
#250=ADVANCED_FACE('',(#249),#242,.T.);
#251=CARTESIAN_POINT('',(-2.35E1,-2.15E1,5.E1));
#252=DIRECTION('',(0.E0,-1.E0,0.E0));
#253=DIRECTION('',(0.E0,0.E0,-1.E0));
#254=AXIS2_PLACEMENT_3D('',#251,#252,#253);
#255=PLANE('',#254);
#256=ORIENTED_EDGE('',*,*,#157,.F.);
#257=ORIENTED_EDGE('',*,*,#144,.T.);
#258=ORIENTED_EDGE('',*,*,#200,.T.);
#259=ORIENTED_EDGE('',*,*,#246,.F.);
#260=EDGE_LOOP('',(#256,#257,#258,#259));
#261=FACE_OUTER_BOUND('',#260,.F.);
#262=ADVANCED_FACE('',(#261),#255,.T.);
#263=CARTESIAN_POINT('',(-1.3E1,-6.5E0,2.5E1));
#264=DIRECTION('',(0.E0,1.E0,0.E0));
#265=DIRECTION('',(0.E0,0.E0,1.E0));
#266=AXIS2_PLACEMENT_3D('',#263,#264,#265);
#267=CYLINDRICAL_SURFACE('',#266,5.5E0);
#269=ORIENTED_EDGE('',*,*,#268,.F.);
#270=ORIENTED_EDGE('',*,*,#181,.T.);
#272=ORIENTED_EDGE('',*,*,#271,.T.);
#273=ORIENTED_EDGE('',*,*,#231,.T.);
#274=EDGE_LOOP('',(#269,#270,#272,#273));
#275=FACE_OUTER_BOUND('',#274,.F.);
#276=ADVANCED_FACE('',(#275),#267,.F.);
#277=CARTESIAN_POINT('',(-1.3E1,-6.5E0,2.5E1));
#278=DIRECTION('',(0.E0,1.E0,0.E0));
#279=DIRECTION('',(0.E0,0.E0,1.E0));
#280=AXIS2_PLACEMENT_3D('',#277,#278,#279);
#281=CYLINDRICAL_SURFACE('',#280,5.5E0);
#282=ORIENTED_EDGE('',*,*,#233,.T.);
#283=ORIENTED_EDGE('',*,*,#271,.F.);
#284=ORIENTED_EDGE('',*,*,#183,.T.);
#285=ORIENTED_EDGE('',*,*,#268,.T.);
#286=EDGE_LOOP('',(#282,#283,#284,#285));
#287=FACE_OUTER_BOUND('',#286,.F.);
#288=ADVANCED_FACE('',(#287),#281,.F.);
#289=CLOSED_SHELL('',(#148,#167,#187,#205,#218,#237,#250,#262,#276,#288));
#290=MANIFOLD_SOLID_BREP('',#289);
#292=DIMENSIONAL_EXPONENTS(0.E0,0.E0,0.E0,0.E0,0.E0,0.E0,0.E0);
#294=PLANE_ANGLE_MEASURE_WITH_UNIT(PLANE_ANGLE_MEASURE(1.745329251994E-2),#293);
#295=(CONVERSION_BASED_UNIT('DEGREE',#294)NAMED_UNIT(*)PLANE_ANGLE_UNIT());
#297=UNCERTAINTY_MEASURE_WITH_UNIT(LENGTH_MEASURE(8.100447537328E-3),#291,
'closure',
'Maximum model space distance between geometric entities at asserted connectivities');
#298=(GEOMETRIC_REPRESENTATION_CONTEXT(3)GLOBAL_UNCERTAINTY_ASSIGNED_CONTEXT((
#297))GLOBAL_UNIT_ASSIGNED_CONTEXT((#291,#295,#296))REPRESENTATION_CONTEXT
('ID1','3'));
#300=APPLICATION_CONTEXT(
'CONFIGURATION CONTROLLED 3D DESIGNS OF MECHANICAL PARTS AND ASSEMBLIES');
#301=APPLICATION_PROTOCOL_DEFINITION('international standard',
'config_control_design',1994,#300);
#302=DESIGN_CONTEXT('',#300,'design');
#303=MECHANICAL_CONTEXT('',#300,'mechanical');
#304=PRODUCT('6354106','6354106','NOT SPECIFIED',(#303));
#305=PRODUCT_DEFINITION_FORMATION_WITH_SPECIFIED_SOURCE('1','LAST_VERSION',#304,
.MADE.);
#309=PRODUCT_CATEGORY('part','');
#310=PRODUCT_RELATED_PRODUCT_CATEGORY('detail','',(#304));
#311=PRODUCT_CATEGORY_RELATIONSHIP('','',#309,#310);
#312=SECURITY_CLASSIFICATION_LEVEL('unclassified');
#313=SECURITY_CLASSIFICATION('','',#312);
#314=CC_DESIGN_SECURITY_CLASSIFICATION(#313,(#305));
#315=APPROVAL_STATUS('approved');
#316=APPROVAL(#315,'');
#317=CC_DESIGN_APPROVAL(#316,(#313,#305,#306));
#318=CALENDAR_DATE(113,26,1);
#319=COORDINATED_UNIVERSAL_TIME_OFFSET(1,0,.AHEAD.);
#320=LOCAL_TIME(14,18,2.5E1,#319);
#321=DATE_AND_TIME(#318,#320);
#322=APPROVAL_DATE_TIME(#321,#316);
#323=DATE_TIME_ROLE('creation_date');
#324=CC_DESIGN_DATE_AND_TIME_ASSIGNMENT(#321,#323,(#306));
#325=DATE_TIME_ROLE('classification_date');
#326=CC_DESIGN_DATE_AND_TIME_ASSIGNMENT(#321,#325,(#313));
#327=PERSON('UNSPECIFIED','UNSPECIFIED',$,$,$,$);
#328=ORGANIZATION('UNSPECIFIED','UNSPECIFIED','UNSPECIFIED');
#329=PERSON_AND_ORGANIZATION(#327,#328);
#330=APPROVAL_ROLE('approver');
#331=APPROVAL_PERSON_ORGANIZATION(#329,#316,#330);
#332=PERSON_AND_ORGANIZATION_ROLE('creator');
#333=CC_DESIGN_PERSON_AND_ORGANIZATION_ASSIGNMENT(#329,#332,(#305,#306));
#334=PERSON_AND_ORGANIZATION_ROLE('design_supplier');
#335=CC_DESIGN_PERSON_AND_ORGANIZATION_ASSIGNMENT(#329,#334,(#305));
#336=PERSON_AND_ORGANIZATION_ROLE('classification_officer');
#337=CC_DESIGN_PERSON_AND_ORGANIZATION_ASSIGNMENT(#329,#336,(#313));
#338=PERSON_AND_ORGANIZATION_ROLE('design_owner');
#339=CC_DESIGN_PERSON_AND_ORGANIZATION_ASSIGNMENT(#329,#338,(#304));
#25=CIRCLE('',#24,5.5E0);
#30=CIRCLE('',#29,5.5E0);
#71=CIRCLE('',#70,5.5E0);
#76=CIRCLE('',#75,5.5E0);
#138=EDGE_CURVE('',#109,#127,#4,.T.);
#140=EDGE_CURVE('',#127,#128,#8,.T.);
#142=EDGE_CURVE('',#128,#110,#12,.T.);
#144=EDGE_CURVE('',#109,#110,#16,.T.);
#154=EDGE_CURVE('',#127,#117,#20,.T.);
#157=EDGE_CURVE('',#109,#112,#88,.T.);
#159=EDGE_CURVE('',#131,#112,#84,.T.);
#161=EDGE_CURVE('',#124,#131,#54,.T.);
#163=EDGE_CURVE('',#124,#117,#46,.T.);
#173=EDGE_CURVE('',#128,#118,#34,.T.);
#177=EDGE_CURVE('',#117,#118,#50,.T.);
#181=EDGE_CURVE('',#104,#103,#25,.T.);
#183=EDGE_CURVE('',#103,#104,#30,.T.);
#194=EDGE_CURVE('',#122,#118,#38,.T.);
#196=EDGE_CURVE('',#132,#122,#62,.T.);
#198=EDGE_CURVE('',#120,#132,#80,.T.);
#200=EDGE_CURVE('',#110,#120,#42,.T.);
#212=EDGE_CURVE('',#124,#122,#66,.T.);
#225=EDGE_CURVE('',#131,#132,#58,.T.);
#231=EDGE_CURVE('',#106,#114,#71,.T.);
#233=EDGE_CURVE('',#114,#106,#76,.T.);
#246=EDGE_CURVE('',#112,#120,#92,.T.);
#268=EDGE_CURVE('',#104,#114,#96,.T.);
#271=EDGE_CURVE('',#103,#106,#100,.T.);
#291=(LENGTH_UNIT()NAMED_UNIT(*)SI_UNIT(.MILLI.,.METRE.));
#293=(NAMED_UNIT(*)PLANE_ANGLE_UNIT()SI_UNIT($,.RADIAN.));
#296=(NAMED_UNIT(*)SI_UNIT($,.STERADIAN.)SOLID_ANGLE_UNIT());
#299=ADVANCED_BREP_SHAPE_REPRESENTATION('',(#290),#298);
#306=PRODUCT_DEFINITION('design','',#305,#302);
#307=PRODUCT_DEFINITION_SHAPE('','SHAPE FOR 6354106.',#306);
#308=SHAPE_DEFINITION_REPRESENTATION(#307,#299);
ENDSEC;
END-ISO-10303-21;
